» » »

Aerosmith, Walk This Way Tabs (ver.1)

Artists:  A B C D E F G H I J K L M N O P Q R S T U V W X Y Z # 

Walk This Way Tabs (ver.1)

Aerosmith Tabs
 Rating:
4/5 (4 votes)
Walk This Way lessons Tabs too difficult? Try these video lessons and learn fast
                Walk This Way	-	Aerosmith
I'd like to take a shot at the other parts of this song:


Start of Aerosmiths' "Walk this way"...
(Or something like it anyway...)

|----------------------|-----------------------------|
|----------------------|-----------------------------|
|----------------------|-----------------------------|
|--------2--------2----|---------2--------2---2------|
|--0-1-2----0-1-2------|---0-1-2----0-1-2------------|
|-------------------0--|--------------------3--------|
                                            ^ ~
                                              *
                                            \---/  <==== RUN D.M.C variation



|----------------------|-----------------------------|
|----------------------|-----------------------------|
|----------------------|----------------------2------|
|--------2--------2----|---------2--------2---2------|
|--0-1-2----0-1-2------|---0-1-2----0-1-2-----0------|
|-------------------0--|-----------------------------|

^ = slight bend
~ = vibrato
* = semi-harmonic sounds cool here if you can pinch it out.

****************************************************************************
*******
Part during verse:
|----------------------------|
|----------------------------|
|----------------------------|
|----------------10----------|
|-10---13-12--------10-13-12-|
|--8-8---------8-------------|

Part during "Walk this way, Talk this way ..."

             C7                     F7
|----------------------|---------------------|
|----------------------|---------------------|
|----------------------|---------------------|
|----------------------|-10-12-13------------|
|-10-12-13-------------|--8------------------|
|--8-------------------|---------------------|
            
Submit corrections

comments powered by Disqus
↑ Back to top | Aerosmith Tabs for Walk This Way. Lyrics for acoustic guitar and electric guitar. Tablatures and chords are parodies/interpretations of the original songs. You may use it for private study, scholarship, research or language learning purposes only