>
 >
Love In An Elevator 2

Love In An Elevator 2 Guitar Tabs

Aerosmith - Love In An Elevator 2 chords, tabs, tablatures, lyrics

Guitar lessons | Add/correct | Request | Top 50 tabs Artists:  A B C D E F G H I J K L M N O P Q R S T U V W X Y Z 0-9

Love In An Elevator 2 Guitar Tabs – Aerosmith

CD, Sheet music, Poster

Do you like Love In An Elevator 2? Share with your friends now
Bass TabsBass Tabs v2Bass Tabs v3ChordsTabsTabs v2Tabs v3Tabs v4Tabs v5Tabs v6Ukulele
================================================================================
         Title : Love In An Elevator
        Artist : Aerosmith
         Album : Pump
================================================================================
  intro

E|-------------------------------------------|-------------------------
B|-------------------------------------------|-------------------------
G|-------------------------------------------|-------------------------
D|-------------------------------------------|-------------------------
A|--7b9--7--7-----5--------------------------|--7b9--7--7-----5--------
E|-------------7-----7--6--5--3--5--3--7--0--|-------------7-----7--6--



E|--------------------|-------------------------------------------|
B|--------------------|-------------------------------------------|
G|--------------------|-------------------------------------------|
D|--------------------|-------------------------------------------|
A|--------------------|--7b9--7--7-----5--------------------------|
E|--5--3--5--3--7--0--|-------------7-----7--6--5--3--5--3--7--0--|



E|---------------------------------------------|
B|---------------------------------------------|
G|---------------------------------------------|
D|---------------------------------------------|
A|--7b9----7--7-----5--------------------------|
E|---------------7-----7--6--5--3--5--3--7--0--|


                                                
E|------------------------------------|------------------------------------|
B|------------------------------------|--3---------3-----3-----3-----------|
G|--2----------2-----2-----2----------|--2---------------------------------|
D|--2---------------------------------|--0----4/5-----5-----5-----5--4--0--|
A|--0----4--5-----5-----5-----5p4--0--|------------------------------------|
E|------------------------------------|------------------------------------|


  verse                  x4                       x3                     

E||----------------------|||-----------------------||---------------------|
B|*----------------------*|*--------------------8--*|---------------------|
G||-------------------5--|||-----------------7--7--||-------------------7-|
D||-------------------5--|||-----7--7--7--7--7--5--||-----7--7--7--7----7-|
A|*-------------------3--*|*--0--4--0--4--5--5-----*|--0--4--0--4--5----5-|
E||-0--2--0--2--3--3-----|||-----------------------||---------------------|



 first chorus

E|-----------------------------------------------|
B|-----------------------------------------------|
G|-----------------------------4-----------------|
D|--4--4--4--6--x--4--x--6--x--4--4--4--4--4--4--|
A|--2--2--2--2--x--2--x--2--x--2--2--2--2--2--2--|
E|-----------------------------------------------|



E|----------------------------------------|
B|-----------------------------4-------2--|
G|-----------------------------4-------2--|
D|--4--4--4--6--x--4--x--6--x--4-------2--|
A|--2--2--2--2--x--2--x--2--x--2--2----2--|
E|----------------------------------------|



E|-----------------------------------------------|
B|-----------------------------------------------|
G|-----------------------------4-----------------|
D|--4--4--4--6--x--4--x--6--x--4--4--4--4--4--4--|
A|--2--2--2--2--x--2--x--2--x--2--2--2--2--2--2--|
E|-----------------------------------------------|

                 

E|--------------------------------|
B|-----------------------4--3--2--|
G|-----------------------4--3--2--|
D|--4--4--4--6--x--4--x--4--3--2--|
A|--2--2--2--2--x--2--x--2--1--0--|
E|--------------------------------|


 2nd chorus 

E|-------------------------------------------------|
B|-------------------------------------------------|
G|-------------------------------4-----------------|
D|----4--4--4--6--x--4--x--6--x--4--4--4--4--4--4--|
A|----2--2--2--2--x--2--x--2--x--2--2--2--2--2--2--|
E|-------------------------------------------------|



E|--------------------------------------|
B|-----------------------------4-----2--|
G|-----------------------------4-----2--|
D|--4--4--4--6--x--4--x--6--x--4-----2--|
A|--2--2--2--2--x--2--x--2--x--2--2--2--|
E|--------------------------------------|

                                              

E|--------------------------------|--------------------------------------|
B|--------------------------------|--------------------------------------|
G|-----------------------------4--|-----------------------------4-----2--|
D|--4--4--4--6--x--4--x--6--x--4--|--4--4--4--6--x--4--x--6--x--4-----2--|
A|--2--2--2--2--x--2--x--2--x--2--|--2--2--2--2--x--2--x--2--x--2--0--0--|
E|--0--0--0--0--x--0--x--0--x--0--|--0--0--0--0--x--0--x--0--x--0--------|



middle 8

E|---------------------------------------------------|
B|---------------------------------------------------|
G|---------------------------------------------------|
D|---------------------------------------------------|
A|---------------------------------------------------|
E|--0--0--0--0--4--0--0--5--0--0--6--0--7--0--9--10--|


                                                     x5

E||-------------------------------------------------||
B||*-----------------------------------------------*||
G||-------------------------------------------------||
D||-------------------------------------------------||
A||*-----------------------------------------------*||
E||---0--0--4--0--0--5--0--0--6--0----7--0--9--10---||





Comments


Popular Aerosmith tabs & chords
Same Old Song And Dance 3 Bass Tabs
Cheese Cake Chords
I Wanna Know Why Chords
Avant Garden Intro Tabs
Dude Looks Like A Lady (Solo) Tabs
Round And Round Tabs
Season Of Wither 1 Tabs
Sweet Emotion Intro Tabs
Walk This Way 6 Tabs
Lay It Down Ukulele


Song lyrics



↑ Back to top | Tablatures and chords are parodies/interpretations of the original songs. You may use it for private study, scholarship, research or language learning purposes only
© 2014 AZChords.com Contact us | Privacy policy | DMCA | Add/correct tabs | Request tabs | Top 50 tabs