» » »

Love In An Elevator Bass tabs (ver.2)

Artists:  A B C D E F G H I J K L M N O P Q R S T U V W X Y Z # 

Love In An Elevator Bass tabs (ver.2)

Aerosmith
Rating:
0/5 (0 votes)
Tabs too difficult? Try these video lessons and learn fast.
                I have asked afriend to do this so pleas rate this song

Riff 1:

G-----------------------------------------|
D-----------------------------------------|
A-7----6----5--------4---3---2------------|
E----5----4----3---3---2---1---0----------|  X2

Riff 2

G-----------------|
D-----------5-5---|
A------5-5--------|
E--5~-------------|

Verse

G------------------------------------------------------------------------------|
D------------------------------------------------------------------------------|
A-------3---4-5-6---7-5------3---4-5-6---------3---4-5-6---7-5------3---4-5-6--|
E--0-0----0--------------0-0----0-----------0-0---0---------------0-0---0------|

G-----------------------------------------------------------------------------------|
D-----------------------------------------------------------------------------------|
A-------4----5-7-8---------4---5-7-8-------4----5-7-8------4---5-7-8~-9~------------|
E--2-2----2------------2-2---2---------2-2----2---------2-2---2---------------------|

Chorus

G---------------------------------------------------------------------------|
D--9-9-9-9-9-9-9-9-9-9-9-9-9-9-9-9-9-9-9-9-9-9-9-9-9-9-9-9-9-8-7------------|
A---------------------------------------------------------------------------|
E---------------------------------------------------------------------------|

Verse

Chorus

Riff 3

G-----------------------------------------------|
D--2--------2----------2----------2-------------|
A-----------------------------------------------|
E-----0-0~-----0-0~-------0-0~-----0-0~---------|

Half Chorus

Riff 3

Riff 1 X2

Riff 2

Riff1 X2

Riff 2

Riff1 X2

Riff 2

Riff X Alot with a random break at some point
(Listen to the song)

Riff 3

Chorus

Verse

Half Chorus, followed by Riff 3
            
Tabs too difficult? Try these video lessons and learn fast.


comments powered by Disqus
↑ Back to top | Tablatures and chords are parodies/interpretations of the original songs. You may use it for private study, scholarship, research or language learning purposes only