>
 >
Love In An Elevator

Love In An Elevator Bass Tabs

Aerosmith - Love In An Elevator chords, tabs, tablatures, lyrics

Guitar lessons | Add/correct | Request | Top 50 tabs Artists:  A B C D E F G H I J K L M N O P Q R S T U V W X Y Z 0-9

Love In An Elevator Bass Tabs – Aerosmith

CD, Sheet music, Poster

Do you like Love In An Elevator? Share with your friends now
Bass TabsBass Tabs v2Bass Tabs v3ChordsTabsTabs v2Tabs v3Tabs v4Tabs v5Tabs v6Ukulele
                              Love in an Elevator                               


                                                                       Aerosmith
Tom Hamilton



     |-3| |-3| 3  3   |3|  |3|  |3|  3     
     E  S E  S E  E.  S E  S E  S E  Q     
G||---------------------------------------|
D||--4--0-2----0--------------------------|
A||----------2----2---1-0----0----2-------|
E||------------------------3----0----0----|


  |-3| |-3| 3  3   |3|  |3|  |3|  3       |-3| |-3| 3  3   |3|  |3|  |3|  3     
  E  S E  S E  E.  S E  S E  S E  Q       E  S E  S E  E.  S E  S E  S E  Q     
---------------------------------------|---------------------------------------|
--4--0-2----0--------------------------|--4--0-2----0--------------------------|
----------2----2---1-0----0----2-------|----------2----2---1-0----0----2-------|
------------------------3----0----0----|------------------------3----0----0----|


  |-3| |-3| 3  3   |3|  |3|  |3|  3                                             
  E  S E  S E  E.  S E  S E  S E  Q       W                   W                 
---------------------------------------|-------------------|-------------------|
--4--0-2----0--------------------------|-------------------|-------------------|
----------2----2---1-0----0----2-------|-------------------|--5----------------|
------------------------3----0----0----|--5----------------|-------------------|


  E  S S S E.  S E.  Q       E  S S S E.  S E.  Q     
--------------------------|--------------------------|
--------------------------|--------------------------|
---------------------3----|---------------------3----|
--0--2-0-2-3---3----------|--0--2-0-2-3---3----------|


  E  S S S E.  S E.  Q       E  S S S E.  S E.  Q     
--------------------------|--------------------------|
--------------------------|--------------------------|
---------------------3----|---------------------3----|
--0--2-0-2-3---3----------|--0--2-0-2-3---3----------|


  E  S S S E.  S E.  Q       E  S S S E.  S E.  Q     
--------------------------|--------------------------|
--------------------------|--------------------------|
-----4---4-5---5-----5----|-----4---4-5---5-----5----|
--5----5------------------|--5----5------------------|


  E  S S S E.  S E.  Q       E  S S S E.  S E.  Q     
--------------------------|--------------------------|
--------------------------|--------------------------|
-----4---4-5---5-----5----|-----4---4-5---5-----5----|
--5----5------------------|--5----5------------------|


  S S E  S E  S S S E  S S E     S S E  S S E  S E.  Q     
------------------------------|---------------------------|
--9-9-9--9-9--9-9-9-9--9-9-9--|--9-9-9--9-9-9--9-9---9----|
------------------------------|---------------------------|
------------------------------|---------------------------|


  S S E  S E  S S S E  S S E     E.  S E  E  S E  S Q     
------------------------------|--------------------------|
--9-9-9--9-9--9-9-9-9--9-9-9--|--9---9-9--9--9-8--7-L----|
------------------------------|--------------------------|
------------------------------|--------------------------|


  E  S S S E.  S E.  Q       E  S S S E.  S E.  Q     
--------------------------|--------------------------|
--------------------------|--------------------------|
---------------------3----|---------------------3----|
--0--2-0-2-3---3----------|--0--2-0-2-3---3----------|


  E  S S S E.  S E.  Q       E  S S S E.  S E.  Q     
--------------------------|--------------------------|
--------------------------|--------------------------|
---------------------3----|---------------------3----|
--0--2-0-2-3---3----------|--0--2-0-2-3---3----------|


  E  S S S E.  S E.  Q       E  S S S E.  S E.  Q     
--------------------------|--------------------------|
--------------------------|--------------------------|
-----4---4-5---5-----5----|-----4---4-5---5-----5----|
--5----5------------------|--5----5------------------|


  E  S S S E.  S E.  Q       E  S S S E.  S E.  Q     
--------------------------|--------------------------|
--------------------------|--------------------------|
-----4---4-5---5-----5----|-----4---4-5---5-----5----|
--5----5------------------|--5----5------------------|


  S S E  S E  S S S E  S S E     S S E  S S E  S E.  Q     
------------------------------|---------------------------|
--9-9-9--9-9--9-9-9-9--9-9-9--|--9-9-9--9-9-9--9-9---9----|
------------------------------|---------------------------|
------------------------------|---------------------------|


  S S E  S E  S S S E  S S E     E.  S E  E  S E  S Q     
------------------------------|--------------------------|
--9-9-9--9-9--9-9-9-9--9-9-9--|--9---9-9--9--9-8--7-L----|
------------------------------|--------------------------|
------------------------------|--------------------------|


  E  E   E.  E  E   E.  E     Q    Q    S S  S S S S  S S  
---------------------------|------------------------------|
--2----------2----------2--|--2----2------0h-2-----0h-2---|
---------------------------|------------------------------|
-----0~--L------0~--L------|------------------------------|


  S S E  S E  S S S E  S S E     S S E  S S E  S E.  Q       W                 
------------------------------|---------------------------|-------------------|
--9-9-9--9-9--9-9-9-9--9-9-9--|--9-9-9--9-9-9--9-9---9----|-------------------|
------------------------------|---------------------------|-------------------|
------------------------------|---------------------------|--5----------------|


                      |-3| |-3| 3  3   |3|  |3|  |3|  3     
  W                   E  S E  S E  E.  S E  S E  S E  Q     
-------------------|---------------------------------------|
-------------------|--4--0-2----0--------------------------|
--5----------------|----------2----2---1-0----0----2-------|
-------------------|------------------------3----0----0----|


  |-3| |-3| 3  3   |3|  |3|  |3|  3                                             
  E  S E  S E  E.  S E  S E  S E  Q       W                   W                 
---------------------------------------|-------------------|-------------------|
--4--0-2----0--------------------------|-------------------|-------------------|
----------2----2---1-0----0----2-------|-------------------|--5----------------|
------------------------3----0----0----|--5----------------|-------------------|


  |-3| |-3| 3  3   |3|  |3|  |3|  3       |-3| |-3| 3  3   |3|  |3|  |3|  3     
  E  S E  S E  E.  S E  S E  S E  Q       E  S E  S E  E.  S E  S E  S E  Q     
---------------------------------------|---------------------------------------|
--4--0-2----0--------------------------|--4--0-2----0--------------------------|
----------2----2---1-0----0----2-------|----------2----2---1-0----0----2-------|
------------------------3----0----0----|------------------------3----0----0----|


                                          |-3| |-3| 3  3   |3|  |3|  |3|  3     
  W                   W                   E  S E  S E  E.  S E  S E  S E  Q     
-------------------|-------------------|---------------------------------------|
-------------------|-------------------|--4--0-2----0--------------------------|
-------------------|--5----------------|----------2----2---1-0----0----2-------|
--5----------------|-------------------|------------------------3----0----0----|


  |-3| |-3| 3  3   |3|  |3|  |3|  3                                             
  E  S E  S E  E.  S E  S E  S E  Q       W                   W                 
---------------------------------------|-------------------|-------------------|
--4--0-2----0--------------------------|-------------------|-------------------|
----------2----2---1-0----0----2-------|-------------------|--5----------------|
------------------------3----0----0----|--5----------------|-------------------|


  W                   W                   W                         
-------------------|-------------------|-------------------|-------|
-------------------|-------------------|-------------------|-------|
-------------------|-------------------|-------------------|-------|
--7----------------|--0----------------|--0----------------|-------|


                   |--|                      |--|                      |--|   
  H.           E.  T  S     H.           E.  T  S     H.           E.  T  S   
-------------------------|-------------------------|-------------------------|
-------------------------|-------------------------|-------------------------|
-------------------------|-------------------------|-------------------------|
---------------------10~-|--L------------L---L-10~-|--L------------L---L-10~-|


                   |--|                      |--|                      |--|   
  H.           E.  T  S     H.           E.  T  S     H.           E.  T  S   
-------------------------|-------------------------|-------------------------|
-------------------------|-------------------------|-------------------------|
-------------------------|-------------------------|-------------------------|
--L------------L---L-10~-|--L------------L---L-10~-|--L------------L---L-10~-|


                   |--|                      |--|                      |--|   
  H.           E.  T  S     H.           E.  T  S     H.           E.  T  S   
-------------------------|-------------------------|-------------------------|
-------------------------|-------------------------|-------------------------|
-------------------------|-------------------------|-------------------------|
--L------------L---L-10~-|--L------------L---L-10~-|--L------------L---L-10~-|


                   |--|                      |--|                      |--|   
  H.           E.  T  S     H.           E.  T  S     H.           E.  T  S   
-------------------------|-------------------------|-------------------------|
-------------------------|-------------------------|-------------------------|
-------------------------|-------------------------|-------------------------|
--L------------L---L-10~-|--L------------L---L-10~-|--L------------L---L-10~-|


                   |--|                                          |--|   
  H.           E.  T  S     W                   H.           E.  T  S   
-------------------------|-------------------|-------------------------|
-------------------------|--0----------------|-------------------------|
-------------------------|--0----------------|-------------------------|
--L------------L---L-10~-|-------------------|---------------------10~-|


                   |--|                              |--|   
  H.           E.  T  S             H.           E.  T  S   
-------------------------|-------|-------------------------|
-------------------------|-------|-------------------------|
-------------------------|-------|-------------------------|
--L------------L---L-10~-|-------|---------------------10~-|


                   |--|                      |--|                      |--|   
  H.           E.  T  S     H.           E.  T  S     H.           E.  T  S   
-------------------------|-------------------------|-------------------------|
-------------------------|-------------------------|-------------------------|
-------------------------|-------------------------|-------------------------|
--L------------L---L-10~-|--L------------L---L-10~-|--L------------L---L-10~-|


                                       |--|                      |--|   
  W                   H.           E.  T  S     H.           E.  T  S   
-------------------|-------------------------|-------------------------|
--0----------------|-------------------------|-------------------------|
--0----------------|-------------------------|-------------------------|
-------------------|---------------------10~-|--L------------L---L-10~-|


                   |--|                                           
  H.           E.  T  S     W                   W                 
-------------------------|--2----------------|--2----------------|
-------------------------|--0----------------|--2----------------|
-------------------------|--0----------------|--0----------------|
--L------------L---L-10~-|-------------------|-------------------|


  S S E  S E  S S S E  S S E     S S E  S S E  S E.  Q     
------------------------------|---------------------------|
--9-9-9--9-9--9-9-9-9--9-9-9--|--9-9-9--9-9-9--9-9---9----|
------------------------------|---------------------------|
------------------------------|---------------------------|


  S S E  S E  S S S E  S S E     S S E  S S E  S E.  Q     
------------------------------|---------------------------|
--9-9-9--9-9--9-9-9-9--9-9-9--|--9-9-9--9-9-9--9-9---9----|
------------------------------|---------------------------|
------------------------------|---------------------------|


  E  S S S E.  S E.  Q       E  S S S E.  S E.  Q     
--------------------------|--------------------------|
--------------------------|--------------------------|
---------------------3----|---------------------3----|
--0--2-0-2-3---3----------|--0--2-0-2-3---3----------|


  E  S S S E.  S E.  Q       E  S S S E.  S E.  Q     
--------------------------|--------------------------|
--------------------------|--------------------------|
---------------------3----|---------------------3----|
--0--2-0-2-3---3----------|--0--2-0-2-3---3----------|


  E  S S S E.  S E.  Q       E  S S S E.  S E.  Q     
--------------------------|--------------------------|
--------------------------|--------------------------|
-----4---4-5---5-----5----|-----4---4-5---5-----5----|
--5----5------------------|--5----5------------------|


  E  S S S E.  S E.  Q       E  S S S E.  S E.  Q     
--------------------------|--------------------------|
--------------------------|--------------------------|
-----4---4-5---5-----5----|-----4---4-5---5-----5----|
--5----5------------------|--5----5------------------|


  S S E  S E  S S S E  S S E     S S E  S S E  S E.  Q     
------------------------------|---------------------------|
--9-9-9--9-9--9-9-9-9--9-9-9--|--9-9-9--9-9-9--9-9---9----|
------------------------------|---------------------------|
------------------------------|---------------------------|


  S S E  S E  S S S E  S S E     E.  S E  E  S E  S Q     
------------------------------|--------------------------|
--9-9-9--9-9--9-9-9-9--9-9-9--|--9---9-9--9--9-8--7-L----|
------------------------------|--------------------------|
------------------------------|--------------------------|


    Q    Q    Q    Q       Q    Q    Q    Q       S S E  S S E  S E.  Q     
|-----------------------|----------------------|---------------------------|
|*----------------------|----------------------|--9-9-9--9-9-9--9-9---9----|
|*----------------------|----------------------|---------------------------|
|---0----0----0----0----|--0----0----0----0----|---------------------------|


  S S E  S E  S S S E  S S E       S S E  S E  S S S E  S S E   
-------------------------------||------------------------------|
--9-9-9--9-9--9-9-9-9--9-9-9--*||--9-9-9--9-9--9-9-9-9--9-9-9--|
------------------------------*||------------------------------|
-------------------------------||------------------------------|


  Q    Q    Q    Q       Q    Q    Q    Q       S S E  S S E  S E.  Q     
----------------------|----------------------|---------------------------|
----------------------|----------------------|--9-9-9--9-9-9--9-9---9----|
----------------------|----------------------|---------------------------|
--0----0----0----0----|--0----0----0----0----|---------------------------|


  S S E  S E  S S S E  S S E     Q    Q    Q    Q       Q    Q    Q    Q     
------------------------------|----------------------|----------------------|
--9-9-9--9-9--9-9-9-9--9-9-9--|----------------------|----------------------|
------------------------------|----------------------|----------------------|
------------------------------|--0----0----0----0----|--0----0----0----0----|


-------|-------|-------|-------||
-------|-------|-------|-------||
-------|-------|-------|-------||
-------|-------|-------|-------||




Duration Legend
---------------
W - whole
H - half
Q - quarter
E - 8th
S - 16th
T - 32nd
X - 64th
. - note dotted
|-n-|  - n-tuplets


Tablature Legend
----------------
L - tied note
x - dead note
g - grace note
(n) - ghost note
> - accentuded note
NH - natural harmonic
AH - artificial harmonic
TH - tapped harmonic
SH - semi harmonic
PH - pitch harmonic
h - hammer on
p - pull off
b - bend
br - bendRelease
pb - preBend
pbr - preBendRelease
brb - bendReleaseBend
\n/ - tremolo bar dip
\n - tremolo bar dive
-/n - tremolo bar Release up
/n\ - tremolo bar inverted dip
/n - tremolo bar return
-\n - tremolo bar Release down
S - shift slide
s - legato slide
/ -  slide into from below or out of upwards
\ -  slide into from above or out of downwards
~ - vibrato
W - wide vibrato
tr - trill
TP - tremolo picking
T - tapping
S - slap
P - pop
< - fade in
^ - brush up
v - brush down





Comments


Popular Aerosmith tabs & chords
Milkcow Blues Bass Tabs
Jaded Chords
Come Together 1 Tabs
Deuces Are Wild 1 Tabs
Dream On 7 Tabs
Eat The Rich Tabs
Hand That Feeds Tabs
Train Kept A Rollin Intro 2 Tabs
Uncle Salty Tabs
Walkin The Dog Tabs


Song lyrics



↑ Back to top | Tablatures and chords are parodies/interpretations of the original songs. You may use it for private study, scholarship, research or language learning purposes only
© 2014 AZChords.com Contact us | Privacy policy | DMCA | Add/correct tabs | Request tabs | Top 50 tabs