>
 >
Dream On Unplugged

Dream On Unplugged Guitar Tabs

Aerosmith - Dream On Unplugged chords, tabs, tablatures, lyrics

Guitar lessons | Add/correct | Request | Top 50 tabs Artists:  A B C D E F G H I J K L M N O P Q R S T U V W X Y Z 0-9

Dream On Unplugged Guitar Tabs – Aerosmith

CD, Sheet music, Poster

Do you like Dream On Unplugged? Share with your friends now
Tabs
Aerosmith unplugged


Dream on

(intro)

(riff 1)
Every time that I look in the mirror, all these lines in my face gettin' clearer
The past is gone, it went by like dust to dawn.
(riff 2)
Isn't that the way, everybody's got their dues to pay?
(riff 3)
I know nobody knows where it comes and where it goes
I know, it's everybody's sin, you got to lose to know how to win.

(riff 2)(play only 1 time)(fill 1)

(riff 4)
  
(riff 1)
Half my life's in books' written pages, lived and learned from fools and from sages
You know it's true, all these things, come back to you

(riff 3)(the second time also fill 2)
Sing with me, sing for the years, sing for the laughter 'n sing for the tears
Sing with me if it's just for today, maybe tomorrow the good Lord will take you away

(riff 5)

(solo)

(riff 3)(second time also fill 2)
Sing with me, sing for the years, sing for the laughter 'n sing for the tears
Sing with me if it's just for today, maybe tomorrow the good Lord will take you away

(riff 5)(+ fill 3)

(riff 6)
Dream on, dream on, dream on and dream yourself a dream come true(fill 4)
Dream on, dream on, dream on and dream until your dream comes true(fill 5)

(riff 7)(play 2 times)
Dream on, dream on, dream on, dream on
Dream on, dream on, dream on, ah

(riff 5)
Ah

(riff 3)
Sing with me, sing for the years, sing for the laughter 'n sing for the tears
Sing with me, if it's just for today, maybe tomorrow the good Lord will take you away

(riff 3)(the second time also fill 2)
Sing with me, sing for the years, sing for the laughter 'n sing for the tears
Sing with me, if it's just for today, maybe tomorrow the good Lord will take you away  

(riff 5)(play 'till end)


intro:
e|---5-----5-----4-----4------|---5-----6-----4-----4------|
B|---7-----7-----5-----5------|---4-----4-----3--2--3--2---|
G|------6-----6-----6-----6---|------6-----6---------------|
D|----------------------------|----------------------------|
A|----------------------------|----------------------------|
E|----------------------------|----------------------------|

e|---5-----5-----7-----7------|---9-------9---------9------|
B|---7-----7-----9-----9------|---10------10--------10-----|
G|------6-----6-----6-----6---|-------11------11----11-----|
D|----------------------------|---------------------11-----|
A|----------------------------|----------------------------|
E|----------------------------|----------------------------|

e|---5-----5-----4-----4------|---5-----6-----4-----4------|
B|---7-----7-----5-----5------|---4-----4-----3--2--3--2---|
G|------6-----6-----6-----6---|------6-----6---------------|
D|----------------------------|----------------------------|
A|----------------------------|----------------------------|
E|----------------------------|----------------------------|

e|---5-----5-----7-----7------|---9-------9-------7--5-----7---|
B|---7-----7-----9-----9------|---10------10------9--7-----9---|
G|------6-----6-----6-----6---|-------11------11--------6------|
D|----------------------------|--------------------------------|
A|----------------------------|--------------------------------|
E|----------------------------|--------------------------------|

e|---9------9------7--5-----5-|--------------------------------|
B|---10-----10-----9--7-----7-|--3---2---3---2---3---2---3---2-|
G|-------8------8--------8----|--------------------------------|
D|----------------------------|--------------------------------|
A|----------------------------|--------------------------------|
E|----------------------------|--------------------------------|

e|-----------1-2-4-2-4-5-4-5-7-5h7p5-|-4h5p4--2h4p2--------------9-|
B|-3-2---2-3-------------------------|---------------5h7p5---------|
G|-----4-----------------------------|----------------------7p6----|
D|-----------------------------------|-----------------------------|
A|-----------------------------------|-----------------------------|
E|-----------------------------------|-----------------------------|

riff 1:
  F#m            F#m7          F#m6           Bm6    
e|---5-----5-----4-----4------|---5-----5-----4-----4------|
B|---7-----7-----5-----5------|---4-----4-----3--2--3--2---|
G|------6-----6-----6-----6---|------6-----6---------------|(play 4 times)
D|----------------------------|----------------------------|
A|----------------------------|----------------------------|
E|----------------------------|----------------------------|

riff2:
  F#m
e|---5-----5-----4-----4------|---5-----5-----4-----4------|
B|---7-----7-----6-----6------|---7-----7-----7-----7------|
G|------6-----6-----6-----6---|------6-----6-----6-----6---|
D|----------------------------|----------------------------|
A|----------------------------|----------------------------|
E|----------------------------|----------------------------|
 
  C#             Dmaj7         D#7            C#7   
e|----------------------------|----------------------------|
B|---3--2--3--2--3--2--3--2---|---3--2--3--2--3--2--3--2---|
G|----------------------------|----------------------------|
D|----------------------------|----------------------------|
A|----------------------------|----------------------------|
E|----------------------------|----------------------------|

riff 3:
  F#m             E            D           E
e|---------------------------|------------------------|
B|---------------------------|------------------------|
G|---------------------------|------------------------|(play 2 times)
D|---11---11--11--9---9--9---|---7---7--7--9---9--9---|
A|---9----9---9---7---7--7---|---5---5--5--7---7--7---|
E|---------------------------|------------------------|

riff 4:
  F#m            F#m9          F#m
e|---5-----5-----7-----7-----|---9-------9--------9---|
B|---7-----7-----9-----9-----|---10------10-------10--|
G|------6-----6-----6-----6--|--------------------11--|
D|---------------------------|-------11------11---11--|
A|---------------------------|------------------------|
E|---------------------------|------------------------|

riff 5:
    Bm C# Bm C# ...
e|--------------------------|--------------------------|
B|--------------------------|--------------------------|
G|--3--2--3--2--3--2--3--2--|--3--2--3--2--3--2--3--2--|
D|--------------------------|--------------------------|
A|--------------------------|--------------------------|
E|--------------------------|--------------------------|
riff 6:
   B5          C#5        D5         E5         F#m5
e|----------------------|---------------------|--------------|--------------|
B|----------------------|---------------------|--------------|--------------|
G|--4---4--4--6---6--6--|--7---7--7--9---9--9-|--------------|--------------|(play 2 times)
D|--4---4--4--6---6--6--|--7---7--7--9---9--9-|--4--4--4--4--|--4--4--4--4--|
A|--2---2--2--4---4--4--|--5---5--5--7---7--7-|--4--4--4--4--|--4--4--4--4--|
E|----------------------|---------------------|--2--2--2--2--|--2--2--2--2--|

riff 7:
   B5          C#5        D5         E5
e|----------------------|---------------------|
B|----------------------|---------------------|
G|--4---4--4--6---6--6--|--7---7--7--9---9--9-|
D|--4---4--4--6---6--6--|--7---7--7--9---9--9-|
A|--2---2--2--4---4--4--|--5---5--5--7---7--7-|
E|----------------------|---------------------|

fill 1:
e|-----------------|-----------------|
B|-----------------|-----------------|
G|-------------2---|-----------------|
D|---------2-4---4-|-(hold note)-----|
A|-----2-4---------|-----------------|
E|-2-5-------------|-----------------|

fill 2:
e|----------------------------------|----------------------------------|
B|----------------------------------|----------------------------------|
G|-6----------------6---------------|-6----------------6-4-4-4-4-------|
D|---4-4-4-4----------6-6-6-6-------|---7-7-7-7------------------------|
A|----------------------------------|----------------------------------|
E|----------------------------------|----------------------------------|

fill 3:
e|--------------------------------------------------|
B|--------------------------------------------------|
G|--------------9------------9-9b-----9-11-p9-----9-|
D|-11-----------------11----------11----------11----|
A|--------------------------------------------------|
E|--------------------------------------------------|

e|--------9-----------------------------------------|
B|-----------9-12-p9------------------------9-12B---|
G|-11b13-------------11-p9---------9-11-11B---------|
D|-----------------------------11-------------------|
A|--------------------------------------------------|
E|--------------------------------------------------|

fill 4:
e|-14--14--14--14--|--14--12-------------------------------------------------|
B|-----------------|----------14--12-----------------------------------------|
G|-----------------|------------------14--11---------------------------------|
D|-----------------|--------------------------14--11-------------------------|
A|-----------------|----------------------------------14--12--11-------------|
E|-----------------|----------------------------------------------14--12-\-0-|

e|-----------------------------|--2-----5--5-----5--5--5--5--7--7--7--7--9--9--|
B|----------------------2-5--2-|-----5--5--5--7--5--5--5--7--7--7--7--7--7--7--|
G|-----------2----4-2-2--------|-----------------------------------------------|
D|-4-2---2-4----4--------------|-----------------------------------------------|
A|-----4-----------------------|-----------------------------------------------|
E|-----------------------------|-----------------------------------------------|


solo:
e|---5-----5-----7-----7-----7-----|-9-----9-----9/14-------|
B|-----7-----7-----7-----7-----7---|---7-----7--------------|
G|-6-----6-----6-----6-----6-----6-|-----6-----6------------|
D|---------------------------------|------------------------|
A|---------------------------------|------------------------|
E|---------------------------------|------------------------|

e|--9----9--------9-----------|---(9)---------------|
B|-----7-----7--7----7---7-7--|-7-----7--7--9---10--|
G|----------------------------|---------------------|
D|----------------------------|---------------------|
A|----------------------------|---------------------|
E|----------------------------|---------------------|

e|----5---5-----5-----7-----7-----|-9-----9-----9--14--14--|
B|----------7-----7-----------7---|---7-----7--------------|
G|--6---------6-----6-----6-----6-|-----6-----6------------|
D|--------------------------------|------------------------|
A|--------------------------------|------------------------|
E|--------------------------------|------------------------|

e|--9------9----------9---------|
B|------7-----7----7------7--7--|
G|------------------------------|
D|------------------------------|
A|------------------------------|
E|------------------------------|



  

Big ten-inch record


chords used:
       D7     A7     E7     Bm7    A   
   E----2-----0-------0------2-----0------|
   B----1-----2-------3------3-----2------|
   G----2-----0-------1------2-----2------|
   D----0-----2-------2------4-----2------|
   A----------0-------2------2-----0------|
   E------------------0-------------------|

   D7                          
   Got me the strangest woman   
   A7
   Believe me this chick's no cinch 
   D7
   But I really get her goin'
   E7
   When I get out my big ten-inch
                D7 
   record of a band that plays the blues
             A7
   well a band that plays the blues
     Bm7           E7
   She just loves my big ten-inch
                               A
   record of her favorite blues

        This is what I came up with for the solo. It seems pretty accurate
but I'm still a bit cautious because it's the first time that I figured out
a somewhat difficult solo. This is the solo on the album, by the way. I'm
aware that their live versions(Unplugged,etc.)are a bit different in that
they contain solos by Joe, Brad and Tom Ghimbel(saxophone)but this is the
Toys in the Attic version and therefore, this is the only guitar solo.
You'll have to work out the timing on your own because all I did was put two
spaces in between notes. Anyway, here it is:
   solo(guitar 1)-
   E------------------------------------------------------|
   B------------------------------------------------------|
   G-------7p5-----5----------7p5-----5-------------------|
   D----7-------7-----7----7-------7-----7-----7----7-----|
   A------------------------------------------------------|
   E------------------------------------------------------|

   
   E------------------------------------5--5b-r-----------|
   B------------------------------------------------------|
   G------7p5-----5----------7p5-----5-------------7--7b--|
   D---7-------7-----7----7-------7-----------------------|
   A------------------------------------------------------|
   E------------------------------------------------------|

   
   E---------------------5--------5--8b-p5-----5----------|
   B------------------5-----5--8------------8-----8--7--7b|
   G--rp5--------5h7--------------------------------------|
   D-------7-7--------------------------------------------|
   A------------------------------------------------------|
   E------------------------------------------------------|

   
   E------------------------------5------5---------5------|
   B-rp5----------------7brp5--------7b-----r--7b-----r---|
   G------7--5--(5--7)---------7--------------------------|
   D------------------------------------------------------|
   A------------------------------------------------------|
   E------------------------------------------------------|

   E------5---------5-------------------------------------|
   B--7b-----r--7b-----8p7p5-------------------7//(1)-----|
   G--------------------------8p7p5------------7//(1)-----|
   D---------------------------------7--7------7//(1)-----|
   A------------------------------------------------------|
   E------------------------------------------------------|

The chord progression for the rest of the song is the same. The rest of the
lyrics go like this:

   Last night I tried to tease her
   I gave my love a little pinch
   But she said "Now stop that jivin'
   now whip out your big ten-inch

   (chorus)

   I'll cover her with kisses
   and when we're in a lover's clinch
   she gets all excited 
   but then she puts on my big ten-inch

   (chorus)

   My gal don't go for smokin'
   and liquor just makes her flinch
   Seems she don't go for nothin'
   'cept for my big ten-inch

   (chorus)



Toys in the attic


Intro :  (Rhy. Fig. 1)

 E5                           D5  A 3X
|-----------------------------|------|  
|-----------------------------|-3--2-|
|-----------------------------|-2--2-|
|-----2h0-----0---------------|-0--2-|
|-2----------2-----2----------|----0-|
|-0-------------------3p0--0--|------|


Bridge : 
   A5          E5     D5           A5   G5
|----------------------------------------3----|
|----------------------------------------3----|
|----------------------7-------7-\-2-----0----|
|---7-------7-\-2------7-------7-\-2-----0----|
|---7-------7-\-2------5-------5-\-0-----0----|
|---5-------5-\-0------------------------3----|
  Lights.   Voices   scream.  Nothing   seen.

   D5  A5        (N.C.)       B5 A5  B5        A5 (N.C.)
|---------------------------------------------------------------|
|---------------------------------------------------------------|
|---7-\-2----------------------4-2---4---4---4--2---------------|
|---7-\-2----------------------4-2---4---4---4--2---------------|
|---5-\-0----------2--2--4 \ 6--------------------2-2--4 \ 6----|
|---------------------------------------------------------------|
    Reals   the  dream.


Verse :   (Rhy. Fig. 2)
  E5
|---------------------------------|---------------------|
|-10--9--9b10r9------7------------|---------------------|
|--------9b10r9------7--------6---|---------------------|
|-------------------------9---7---|---------------------|
|---------------------------------|-7---0------------2--|
|---------------------------------|-------------0----0--|
 Leaving the things that are real             behind.

 Repeat Rhy. Fig.2 with the rest of the verse :
 
 Leaving the things that you love  from mind.
 All of the things that you learned from fears.
 Nothing is left but the years.

 Bridge : (Repeat Bridge)

 Chorus : (Rhy. Fig.1)  4X
   Toys,  toys,  toys in the attic

 Bridge : (Repeat Bridge)


 Solo :
 C5
|----6----6----6----6-----8-----------------------------|
|-4----4----4----4----------8---------------------------|
|-6b---6b---6b---6b---7b------7b-5-7b-5---7---5-7b-5-6--|
|---------------------------------------7---5-----------|
|-------------------------------------------------------|
|-------------------------------------------------------|

|-----8-8--------------8-------8-----8-8-8--------------|
|-----8-8-10b-8-10b-8----10-10---11b-------11-8-10-11---|
|-7\9-----10b-8-10b-8-----------------------------------|
|-------------------------------------------------------|
|-------------------------------------------------------|
|-------------------------------------------------------|

|--------------------------------------------10\8-------|
|--------------------------------------------10\8-------|
|-8-8----8-8----8-8----8-8----8-8-7-------10------------|
|-8-8----8-8----8-8----8-8----8-8-7----10-10------------|
|-----10-----10-----10-----10-------10------------------|
|-------------------------------------------------------|

|-----8-------8---------8-------8-----------------------|
|-11b-8-------8-11b-----8-------------------------------|
|-------8-10b-------10b---8-10b---11\8-10-10-10b--------|
|-------------------------------------------------------|
|-------------------------------------------------------|
|-------------------------------------------------------|

|-----------------------|-------|
|-----8-----9-----10----|--12b\-|
|-10b---11b---12b----13-|--14b\-|
|-----------------------|-------|
|-----------------------|-------|
|-----------------------|-------|
   Double stops are very important during the verses and the 
       solo.  Use double stops during the solo.  It makes
       the song sound more complete.



Train kept a rollin'


  Intro:   Play Twice
e:----------------------------|   
B:--15~~~-----------12--------|
G:--14b(16r15.5b14)---12---9--|
D:----------------------12^9--|
A:----------------------------|
E:----------------------------|
 
 
   Riff 1
e:--------------------|--------|--------------------|-----------------|
B:--------------------|--------|--------------------|-----------------|
G:--------------------|-Play---|--------------------|-----------------|
D:-5--5-5-5-5--5-5---5^-Twice--^-7--7-7-7-7--7-7--7\|-5--5-5-5-5--5-5\|
A:-5--5-5-5-5--5-5---5|--------|-7--7-7-7-7--7-7--7\|-5--5-5-5-5--5-5\|
E:-3--0-0-3-3--0-3---0|--------|-5--0-0-5-5--0-5--0\|-3--0-0-3-3--0-3\|
                                                   
 
e:----------------------------|-------------|
B:----------------------------|-------------|
G:----------------------------|-Repeat-from-|
D:-7-7--7--7-9--99-9\7---5--4-|----Start----|
A:-7-7--7--7-9--99-9\7---5--4-|-------------|
E:-5-5--5--5^0--77-0\5---3--2-|-------------|
 
                                                
           Interlude 1:   6 Times
e:-------|--------------------------------------------|
B:-------|--------------------------------------------|
G:-------|--------------------------------------------|
D:-2-----|----------5-------------2-2------------2-2--|
A:-2-----|-----5-----^7^5---------2-2------------2-2--|
E:-0~~~--|-5^7--^7-------^7^5\3~--0-0--0--2--3~~-0-0--|
                                  . .            . .
 
 
    E  A  B  Chord Progression
e:-----5--7-------------------------------|---------|
B:-----5--7-------------------------------|-Back-to-|
G:-----6--8-------------------------------|-Riff-1--|
D:-----7--9-------------------------------|--Over---|
A:-----7--9-------------------------------|--Solo---|
E:--0--5\-7--7-8-9-10~~-10-11-12-13-15~~~-|---------|
 
Riff 2:  Same as Riff 1 but faster and less blues.  also the into the 
same but loose the ending of it.  the interlude 2 is the same but with 
out the 1st fast run.
 
Riff 1
Well, on a train, I met a dame,
She rather handsome, but kind of looked the same.
She was pretty, from New York City
I'm walkin' down that old fair lane,
I'm in heat, I'm in love,
But I just couldn't tell her so
 
I said, train kept a-rollin' all night long
Train kept a-rollin' all night long
Train kept a-rollin' all night long
Train kept a-rollin' all night long
With a "heave!", and a "ho!"
But I just couldn't tell her so, no, no, no... (lead)
 
Well, get along, sweet little woman get along
On your way, get along, sweet little woman get along
On your way,
I'm in heat, I'm in love,
But I just couldn't tell her so, no, no, no
 
(Interlude 1, and solo)
 
Drum role, lead, fast guitar.
 
Riff 2
Well, on a train, I met a dame,
She rather handsome, but kind of looked the same.
She was pretty, from New York City
I'm walkin' down that old fair lane,
I'm in heat, I'm in love,
But I just couldn't tell her so
 
I said, train kept a-rollin' all night long
Train kept a-rollin' all night long
Train kept a-rollin' all night long
Train kept a-rollin' all night long
With a "heave!", and a "ho!"
But I just couldn't tell her so, no, no, no
 
solo
 
Well, get along, sweet little woman get along
On your way, get along, sweet little woman get along
On your way,
I'm in heat, I'm in love,
But I just couldn't tell her  yah...ayh....
 
Interlude 2, solo
 
Riff 2
Well, we made a stop in Albequerque
She must'a thought I was a real cool jerk
Got off the train, and put her hands up
Lookin' so good jack couldn't let her go   oOOooo..
But I just couldn't tell her so
 
I said, train kept a-rollin' all night long  (lead)
Train kept a-rollin' all night long          (lead)
Train kept a-rollin' all night long          (lead)
Train kept a-rollin' all night long          (lead)
I'm in heat, I'm in love,
But I just couldn't tell her   ayh...ayh...


Walking the dog
   intro-
   E------------------------|
   B------------------------|
   G--9-9------------9-7----|
   D--9-9------------9-7----|
   A--7-7------------7-7----|
   E--0-0------------0-0----|
   *repeat these two chords when appropriate

verse-
+-------------------------------------------------------------------
+-------------------------------------------------------------------
+-------------------------------------------------------------------
+-----------5---2-----------5---2-----------5---2-------------------
+---------2-------5-2-----2-------5-2-----2-------5-2---------------
+-12\-0-0-------------0-0-------------0-0---------------------------

+---------------------------
+---------------------------
+---------------------------
+-5-5--4-4--3-3--2-2--0h2p0-
+---------------------------
+---------------------------

This is how Brad plays the verse riff on "Unplugged:"
   E-----------------------|-------------------------------|
   B-----------------------|-------------------------------|
   G-----------------------|-------------------------------|
   D----------5~~~---------|--5-5--4-4--3-3--2-2--0h2p0----|
   A---------------7--5----|-------------------------------|
   E--0-0--7-------------7-|-------------------------------|


  Mary mack       dressed in black silver buttons up & down her back
+-------------------------------------------------------------------
+-------------------------------------------------------------------
+-------------------------------------------------------------------
+-------5---2-----------5---2-----------5---2-----------5---2-------
+-----2-------5-2-----2-------5-2-----2-------5-2-----2-------5-2---
+-0-0-------------0-0-------------0-0-------------0-0---------------

  How'd I know?   This she told. She broke a needle now she can't sew
+-------------------------------------------------------------------
+-------------------------------------------------------------------
+-------------------------------------------------------------------
+-------5---2-----------5---2---------------------------------------
+-----2-------5-2-----2-------5-2-2---------------------------------
+-0-0-------------0-0-------------0---------------------------------

Walkin' the dog      I'm just a walkin' your dog        well if you
+-------------------------------------------------------------------
+-------------------------------------------------------------------
+-------------------------------------------------------------------
+------------2---4---5---4---2---4----------------------------------
+------------0---0---0---0---0---0---2---4---5---4---2---4----------
+------------------------------------0---0---0---0---0---0----------

  Don't know how to do it, I'll show you how to walk the dog
+-------------------------------------------------------------------
+-------------------------------------------------------------------
+-------------------------------------------------------------------
+--4--4--4--4--4--4--4--4--2--2--2--2--2--2--2--2--2-x-x-x-x-x-x-x--
+--2--2--2--2--2--2--2--2--0--0--0--0--0--0--0--0--0-x-x-x-x-x-x-x--
+-------------------------------------------------------------------

    interlude-       *
   E-------------------|------------------------------------------------|
   B-------------------|------------------------------------------------|
   G-------------------|---------5/4---------------5/4------------------|
   D--------5p4--------|-------------7p5---------------7-5/-------------|
   A------------7p5----|---0-0-7---------7---0-0-7-------------\9-9-9-9-|
   E--0-0-7---------7--|---------------------------------------\7-7-7-7-|

   * repeat

   gtr.2 plays what sounds like these two notes during the interlude:

   E--3---------10-------------------|
   B--3---------10-------------------|
   G--0----------0-------------------|
   D---------------------------------|
   A---------------------------------|
   E---------------------------------|


This is how I play the variation at the end (Brad plays it a little
differently on "Unplugged"):      
                                                   ...dog
   E-------------------------------------------------|-----|
   B---------------------------------------------2---|-----|
   G-----------------------------------------4---2---|-----|
   D---------5~~~--------5-4-3-2-------------4---2---|--2--|
   A--------------7-5----------------0-1-2---2---0---|--2--|
   E--0-0-7-----------7------------3-----------------|--0--|





Comments


Popular Aerosmith tabs & chords
What Could Have Been Love 1 Chords
All Along The Watchtower (Intro) Tabs
Big Ten Inch 1 Tabs
Let The Music Do The Talking 2 Tabs
Out Go The Lights Intro Tabs
Subway 1 Tabs
Taste Of India Tabs
Train Kept A Rollin' Tabs
Under My Skin  Tabs
Write Me A Letter 2 Tabs


Song lyrics



↑ Back to top | Tablatures and chords are parodies/interpretations of the original songs. You may use it for private study, scholarship, research or language learning purposes only
© 2014 AZChords.com Contact us | Privacy policy | DMCA | Add/correct tabs | Request tabs | Top 50 tabs