» » »

Aerosmith, Dream On Bass tabs (ver.3)

Artists:  A B C D E F G H I J K L M N O P Q R S T U V W X Y Z # 

Dream On Bass tabs (ver.3)

Aerosmith Tabs
 Rating:
4/5 (4 votes)
Dream On lessons Tabs too difficult? Try these video lessons and learn fast
1
                ::AEROSMITH - DREAM ON [BASS TAB]



:: STANDART TUNNING (G-D-A-E)

- [ / ] HAMMER ON/PULL OFF

- (...)  REPEATING

:: NOTE: I MADE A LITTLE CHANGE ON THE LAST PART OF THE BRIDGE BEFORE CHORUS,
IT'S THE ONLY THING YOU MAY HAVE PROBLEMS WITH, BUT LISTENING CAREFULLY TO THE SONG WILL 
YOU TO SET UP WITH THE TIMING. IT'S AN EASY SONG, ENJOY!

:: TAB:

INTRO:

G|--------------------------------------------------------------------------------|
A|--------------------------------------------------------------------------------|
A|-8---8-6---6-5---5-4---4-8---8-8---8-8-8---8-8-8---8----------------6--6-7--7-8-|
E|-----------------------------------------------------6---6-6-6-6--6-------------|

  *Ev'rytime that I look...
                   (3x)
G|-----|---------------|----------------------------------------------------------|
D|-3---|---------1-3---|----------------------------------------------------------|
A|-----|-------3-------|-----3/5--5-3--3/5--53---3-3-3-3-3-3----------------------|
E|-----|---1-----------|--1-------------------------------------------------------|

   *I know, nobody knows...


G|--------------------------------------------------------------------------------|
D|--------------------------------------------------------------------------------|
A|-8---8-6---6-4---4-6---6-8---8-6---6-4---4--------------------------------------|
E|-------------------------------------------1---1---1---1------------------------|

   *Half my life...
                   (3x)
G|-----|---------------|-------------------1--------------------------------------|
D|-----|---------1-3---|---------1-------1---3------------------------------------|
A|-----|-------3-------|-------3-----1-3------------------------------------------|
E|-1---|---1-----------|---1-------1----------------------------------------------|

   *Sing with me...

G|--------------------------------------------------------------------------------|
D|-3---3-1---1--------------------------------------------------------------------|
A|-------------4---4-6---6-8---8-6---6-5---5-4---4-3-3-3-3(...)--8----------------|
E|--------------------------------------------------------------------------------|

SOLO:
                                          (2x)
G|--------------------------------------------|
D|-----------------------6---6----------------|
A|-8---8-8-8---8-8-8---8-------6---6-7---7-8--|
E|--------------------------------------------|

   *Sing with me...

G|--------------------------------------------------------------------------------|
D|--------------------------------------------------------------------------------|
A|-8---8-6---6-4---4-6---6-8---8-6---8-6---6-5---5-4---4-3-3-3-3(...)-------------|
E|--------------------------------------------------------------------------------|

   *Dream on...
                                (2x)
G|----------------------------------|---------------------------------------------|
D|-----------------1-1-1-1-1-1-1-1--|---------------------------------------------|
A|-1---3---4---6--------------------|-1---3---4---6-------------------3-3-3(...)--|
E|----------------------------------|-----------------1---3---4---6---------------|

   *Sing with me...
                           (3x)
G|-----------------------------|--------------------------------------------------|
D|-----------------------------|--------------------------------------------------|
A|-8---8-6---6-4---4-6---6-(8)-|---8-6---6-5---5-4---4-3-3-3-3(...)--3------------|
E|-----------------------------|--------------------------------------------------|
            
Submit corrections

comments powered by Disqus
↑ Back to top | Aerosmith Bass for Dream On. Lyrics for acoustic guitar and electric guitar. 1 Tablatures and chords are parodies/interpretations of the original songs. You may use it for private study, scholarship, research or language learning purposes only