» » »

Aerosmith, Dream On Tabs (ver.2)

Artists:  A B C D E F G H I J K L M N O P Q R S T U V W X Y Z # 

Dream On Tabs (ver.2)

Aerosmith Tabs
 Rating:
4/5 (4 votes)
Dream On lessons Tabs too difficult? Try these video lessons and learn fast
                (Intro)
This is my way of playing "Dream On."  It is only the       intro though.  



                         Enjoy

 E---3-3-2-2-3-3-2-2-3-3-5-5-7-7-5-5-3-- 
 B----0-0-0-0-0-0-0-0-0-0-0-0-----------
 G--------------------------------------
 D--------------------------------------
 A--------------------------------------
 E--------------------------------------

 E--3-3-2-2-3-3-2-2-3-3-5-5-7-7-5-3-5-3-3-2-0-0--
 B---0-0-0-0-0-0-0-0-0-0-0-0---------------------
 G-----------------------------------------------
 D-----------------------------------------------
 A-----------------------------------------------
 E-----------------------------------------------

             I had a little help from my dad.

                         Enjoy!!!
            
Submit corrections

comments powered by Disqus
↑ Back to top | Aerosmith Tabs for Dream On. Lyrics for acoustic guitar and electric guitar. Tablatures and chords are parodies/interpretations of the original songs. You may use it for private study, scholarship, research or language learning purposes only