» » »

Dream On Bass tabs (ver.2)

Artists:  A B C D E F G H I J K L M N O P Q R S T U V W X Y Z # 

Dream On Bass tabs (ver.2)

Aerosmith
Rating:
0/5 (0 votes)

Hard to play? Try these video lessons and learn fast.
                This is how I play...




g|--------------------|--------------------|-----------------------|-----------------------|
d|--3-----3-----------|--------------------|--3-----3--3-----3--3--|--3-----3--3--3-----3--|
a|-----------6-----6--|--5-----5--4-----4--|-----------------------|-----------------------|
e|--------------------|--------------------|-----------------------|-----------------------|

g--------------------|--------------------|--------|----------|
d--------------------|--1-----1--2-----2--|--3-----|--(3)-----|
a--1-----1--1-----1--|--------------------|--------|----------|
e--------------------|--------------------|--------|----------|
 
                                              1______________  2____________
   everytime...   look in...
g--------------|--------------------|--------|---------------|--------------|---------------------|
d*-3-----------|--------------------|--3-----|--------------*|--------------|---------------------|
a*-------------|--------------1--3--|--------|--------1--3--*|--------------|--5-----5---3-----3--|
e--------------|--1-----------------|--------|--1------------|--1--------5--|---------------------|

                                                                               I know...
g---------------------|--------------------------|--------------------------|---------------------|
d---------------------|--------------------------|--------------------------|--3-----3------------|
a--5-----5---4-----4--|--3--3--3--3--3--3--3--3--|--3--3--3--3--3--3--3--3--|------------6-----6--|
e---------------------|--------------------------|--------------------------|---------------------|

g---------------------|---------------------|--------------------|--------|-----|-----|--------|
d---------------------|--3-----3------------|--------------------|--3-----|-----|-----|--------|
a--4-----4---6-----6--|------------6-----6--|--4-----4---6----6--|--------|-----|-----|--------|
e---------------------|---------------------|--------------------|--------|-----|-----|--1-----|

   half my...    book's written...                1______________ 2____________________________
g-------------|-------------------------|--------|---------------|-----------------------------|
d*-3----------|-------------------------|--3-----|--------------*|-----------------------------|
a*------------|-------------------1--3--|--------|--------1--3--*|--------3--------------3--4--|
e-------------|--1----------------------|--------|--1------------|--1--------1---3---4---------|

   sing with me...
g--------------------|------------------------|---------------------|---------------------|
d--3-----3-----------|------------------------|--3-----3------------|---------------------|
a-----------6-----6--|--4-----4--6-----6---6--|------------6-----6--|--5-----5---4-----4--|
e--------------------|------------------------|---------------------|---------------------|

g--------------------------|--------------------------|-------------------------|-----------|
d--------------------------|--------------------------|--3-----3---3-----3---3--|--3--------|
a--3--3--3--3--3--3--3--3--|--3--3--3--3--3--3--3--3--|-------------------------|--------1--|
e--------------------------|--------------------------|-------------------------|-----------|

                                                                                       well
g---------------------|-----------|--------------------------|-----------|------------------|
d--1-----1---2-----2--|--3--------|--3------3---3-----3---3--|--3--------|--1-----2---------|
a---------------------|-----------|--------------------------|--------1--|------------------|
e---------------------|--------1--|--------------------------|-----------|------------------|

     sing with me
g---------------------------|---------------------------|-----------------|---------------------|
d--3------------3-----------|-------------------------3-|--3-----3--------|---------------------|
a-------------------6----6--|--4----4---6-----6--3---6--|---------6----6--|--5-----5---4----4---|
e---------------------------|---------------------------|-----------------|---------------------|

                                                         dream on
g--------------------------|--------------------------|---------------------|---------------------|
d--------------------------|--------------------------|---------------------|------------1-----1--|
a--3--3--3--3--3--3--3--3--|--3--3--3--3--3--3--3--3--|---1----1---3-----3--|--4-----4------------|
e--------------------------|--------------------------|---------------------|---------------------|

g--------------------------|-----------------|---------------------|---------------------|
d--3---3---3---3-----------|--3---3---3---3--|---------------------|------------1-----1--|
a-----------------3--4-----|-----------------|--1-----1---3-----3--|--4-----4------------|
e--1---1---1---1--------4--|--1---1---1---1--|---------------------|---------------------|

g--------------1--------------------1--|------------------------10--10--10--8/10--10--10--10\-|
d-3--1----1--3-------3--1-----1--3-----|--3--3--3--3--3--3--3--3/------------------------------|
a--------3------------------3----------|----------------------------------------------------|
e--------------------------------------|----------------------------------------------------|

g------------------|------------|------------------|------------------|--------------------------|
d------------------|---------1--|------------------|------------------|-----------------------|
a1----1---3-----3--|4----4------|------------------|---------1-----1--|-3-3-3--3--3--3--3--3--|
e------------------|------------|-1---1---3-----3--|-4-----4----------|-----------------------|

                                            PLAY 3 TIMES
g--------------------------|---------------------|----------------------|---------------------|
d--------------------------|*-3-----3------------|---------------------*|--3-----3------------|
a--3--3--3--3--3--3--3--3--|*------------6-----6-|--4-----4---6-----6--*|------------6-----6--|
e--------------------------|---------------------|--2-------------------|---------------------|

g---------------|--------------------------|--------------------------|--------|----------|
d---------------|--------------------------|--------------------------|--------|----------|
a--5-----5---4--|--3--3--3--3--3--3--3--3--|--3--3--3--3--3--3--3--3--|--3-----|--(3)-----|
e---------------|--------------------------|--------------------------|--------|----------|
            
Hard to play? Try these video lessons and learn fast. | Correct




comments powered by Disqus
↑ Back to top | Tablatures and chords are parodies/interpretations of the original songs. You may use it for private study, scholarship, research or language learning purposes only