» » »

Dream On Tabs (ver.11)

Artists:  A B C D E F G H I J K L M N O P Q R S T U V W X Y Z # 

Dream On Tabs (ver.11)

Aerosmith
Rating:
0/5 (0 votes)

Hard to play? Try these video lessons and learn fast.
                Dream` on
Aerosmith

e+-4-----4----|-3-----3----|-4-----4----|-3-----3----|
B+-6-----6----|-4-----4----|-3-----3----|-2-----2----|
G+----5-----5-|----5-----5-|----5-----5-|----5-----5-|
D+------------|------------|------------|------------|
A+------------|------------|------------|------------|
E+------------|------------|------------|------------|

|-4-----4----|-6-----6----|--8-----8----|--8---------|
|-6-----6----|-8-----8----|--9-----9----|--9---------|
|----5-----5-|----5-----5-|-------------|------------|
|------------|------------|----10----10-|------------|
|------------|------------|-------------|------------|
|------------|------------|-------------|------------|

|-4-----4----|-3-----3----|--4-----4----|-3-----3----|
|-6-----6----|-4-----4----|--3-----3----|-2-----2----|
|----5-----5-|----5-----5-|-----5-----5-|----5-----5-|
|------------|------------|-------------|------------|
|------------|------------|-------------|------------|
|------------|------------|-------------|------------|

|-4-----4----|-6-----6----|--8-----8----|-6\-4-----6-|
|-6-----6----|-8-----8----|--9-----9----|-8\-6-----8-|
|----5-----5-|----5-----5-|-------------|-------5----|
|------------|------------|----10----10-|------------|
|------------|------------|-------------|------------|
|------------|------------|-------------|------------|

|--8-----8----|-6\-4-----4-|-3-----3----|-3-----3----|
|--9-----9----|-8\-6-----6-|-2--1--2--1-|-2--1--2--1-|
|-----7-----7-|-------7----|------------|------------|
|-------------|------------|------------|------------|
|-------------|------------|------------|------------|
|-------------|------------|------------|------------|

|-3-------3-------|-3-------3-----------|-3-----------3---------|--3--------|
|-2---1---2---1---|-2---1---2----1------|-2-----1-----2-----1---|--2--------|
|-----------------|---------------------|-----------------------|-----------|
|-----------------|---------------------|-----------------------|-----------|
|-----------------|---------------------|-----------------------|-----------|
|-----------------|---------------------|-----------------------|-----------|
|                 |                     |                       |           |
| (Guitar)        |                     |                       |           |
|-----------------|---------------------|-----------------------|-----------|
|-----------5-6/8-|-6-8/9-8-9/11-9h11p9-|-8h9p8-6h8p6-4h6p4-----|-----------|
|-6p5-3-5h6-------|---------------------|-------------------6-5/|-17--------|
|-----------------|---------------------|-----------------------|-----------|
|-----------------|---------------------|-----------------------|-----------|
|-----------------|---------------------|-----------------------|-----------|

This basic form repeats during the verse, until the "Isn't that the
way" line, when we have:

|-4-----4----|-3-----3----|-4-----4----|-3-----3----|
|-6-----6----|-5-----5----|-6-----6----|-6-----6----|
|----5-----5-|----5-----5-|----5-----5-|----5-----5-|
|------------|------------|------------|------------|
|------------|------------|------------|------------|
|------------|------------|------------|------------|

|-3-----3----|-3-----3----|-3-----3----|-3-----3----|
|-2--1--2--1-|-2--1--2--1-|-2--1--2--1-|-2--1--2--1-|
|------------|------------|------------|------------|
|------------|------------|------------|------------|
|------------|------------|------------|------------|
|------------|------------|------------|------------|


SOLO:

|---4-----4-----6-|-----6-----6-----|-8-----8-----8/--|-13--------------|
|-----6-----6-----|-6-----6-----6---|---6-----6-------|-----------------|
|-5-----5-----5---|---5-----5-----5-|-----5-----5-----|-----------------|
|-----------------|-----------------|-----------------|-----------------|
|-----------------|-----------------|-----------------|-----------------|
|-----------------|-----------------|-----------------|-----------------|


|-8-----8---------|---8-------------|-------8---------|-----------------|
|-----6-----6-----|-6-----6---6-----|-6---6---6---8---|-8b9-------------|
|-----------------|-----------------|-----------------|-----------------|
|-----------------|-----------------|-----------------|-----------------|
|-----------------|-----------------|-----------------|-----------------|
|-----------------|-----------------|-----------------|-----------------|

|---4-----4-----4-|-----6-----6-----|-8-----8-----8/--|-13--------------|
|-----------6-----|-6-----------6---|---6-----6-------|-----------------|
|-5-----------5---|---5-----5-----5-|-----5-----5-----|-----------------|
|-----------------|-----------------|-----------------|-----------------|
|-----------------|-----------------|-----------------|-----------------|
|-----------------|-----------------|-----------------|-----------------|

|-8-----8---------|---8-------------|
|-----6-----6-----|-6-----6---6-----|
|-----------------|-----------------|
|-----------------|-----------------|
|-----------------|-----------------|
|-----------------|-----------------|


FILL 1 [1:31]
|-----------------|-----------------|
|-----------------|-----------------|
|-------------1---|-----------------|
|---------1-3---3-|-(hold note)-----|
|-----1-3---------|-----------------|
|-1-4-------------|-----------------|


FILL 2 [2:10, 2:49, 4:00]
|-----------------|-----------------|-----------------|-----------------|
|-----------------|-----------------|-----------------|-----------------|
|-5---------------|-5---------------|-5---------------|-5-3-3-3-3-------|
|---3-3-3-3-------|---5-5-5-5-------|---6-6-6-6-------|-----------------|
|-----------------|-----------------|-----------------|-----------------|
|-----------------|-----------------|-----------------|-----------------|

FILL 3 [2:55]
|-------------------------|-------------------------|
|-------------------------|-------------------------|
|--------------8'---------|--8-8b-----8-10-p8-----8-|
|-10-----------------10---|-------10----------10----|
|-------------------------|-------------------------|
|-------------------------|-------------------------|

|--------8----------------|-------------------------|
|-----------8-11-p8-------|-----------------8-11B---|
|-10b12-------------10-p8-|--------8-10-10B---------|
|-------------------------|----10-------------------|
|-------------------------|-------------------------|
|-------------------------|-------------------------|

FILL 4 [3:07]
|--------------------------|-------------------------|
|-16b18--------16b18-------|-16b18-------16b18-------|
|--------------------------|-------------------------|
|--------------------------|-------------------------|
|--------------------------|-------------------------|
|--------------------------|-------------------------|

|--------------------------|-------------------------|
|-16B-16----13-------------|-------------------------|
|--------------15----13----|-------------------------|
|-----------------------15-|----13-------------------|
|--------------------------|-------15-14-13-11-------|
|--------------------------|-------------------13----|


FILL 5 [3:19]                                               
|-----------------|-------------------|-----------4-4---|-4-6-6-6-6-6-6---|
|-----------------|-------------4-----|-6-4-4---6-----6-|---(full bend)---|
|-----------1-----|-3-1---1-3/5-----5-|-------5---------|-----------------|
|-3-1---1-3-----3-|-----3-------------|-----------------|-----------------|
|-----3-----------|-------------------|-----------------|-----------------|
|-----------------|-------------------|-----------------|-----------------|
            
Hard to play? Try these video lessons and learn fast. | Correct




comments powered by Disqus
↑ Back to top | Tablatures and chords are parodies/interpretations of the original songs. You may use it for private study, scholarship, research or language learning purposes only