>
 >
Dream On

Dream On Guitar Tabs

Aerosmith - Dream On chords, tabs, tablatures, lyrics

Guitar lessons | Add/correct | Request | Top 50 tabs Artists:  A B C D E F G H I J K L M N O P Q R S T U V W X Y Z 0-9

Dream On Guitar Tabs – Aerosmith

CD, Sheet music, Poster

Do you like Dream On? Share with your friends now
Bass TabsBass Tabs v2Bass Tabs v3ChordsChords v2Chords v3Chords v4Chords v5Chords v6Drum TabsDrum Tabs v2TabsTabs v2Tabs v3Tabs v4Tabs v5Tabs v6Tabs v7Tabs v8Tabs v9Ukulele
AEROSMITH: DREAM ON
                                  Steven Tyler
guitar 1,2
E-|-4---4---3---3---4---4---3---3---|-4---4---6---6---8----8----8-|\
B-|-6---6---4---4---3---3---2---2---|-6---6---8---8---9----9----9-| |
G-|---5---5---5---5---5---5---5---5-|---5---5---5---5-----------10| |
D-|---------------------------------|-------------------10---10-10| |
A-|---------------------------------|-----------------------------| |
E-|---------------------------------|-----------------------------| |
   \---------------v---------------/ guitar2                        >fill 7
                fill 1       \--v--/|-4---4---6---6---8---8-----8-| |
                             fill 2 |-6---6---6---6---6---6-----6-| |
                                    |---5---5---5---5---5----5--5-| |
                                    |-----------------------------| |
                                    |-----------------------------| |
                                    |-----------------------------|/


E-|--------|-4---4---6---6---8----8----8---8--8--6-8---8---8-8----|------|4---|
B-|--------|-6---6---8---8---9----9----11--9-----8-9---9---8-6---6|------|6---|
G-|--------|---5---5---5---5-----------12--10--------7---7-----7--|fill 2|--5-|
D-|-fill 1-|-------------------10---10--------10------------------|- x2 -|x7.5|
A-|--------|------------------------------------------------------|------|----|
E-|--------|------------------------------------------------------|------|----|
           |
           |-4---4---6---6---8----8----6---4-----6-8---8---8\6-6-6|------|
           |-6---6---6---6---6----6----6---6-----6-----9---8\6-6-6|------|
           |---5---5---5---5--------------------------------------|-6-5--|
           |------------------------------------------------------|  x4  |
           |------------------------------------------------------|------|
           |------------------------------------------------------|------|
guitar 2
E-|---------------------------------------------------------------|
B-|-----------5/6/8-6/8/9-8/9/11-9h11p9-8h9p8-6h8p6-4h6p4-2\1/13--|
G-|-6\5\3-5-6-----------------------------------------------------|
D-|---------------------------------------------------------------|
A-|---------------------------------------------------------------|
E-|---------------------------------------------------------------|


E-|--------|-4---4---3---3---4---4---3---3---|-3---3---4---4---5---5---6--666|
B-|--------|-6---6---6---5---6---6---6---6---|-5---5---6---6---7---7---8--888|
G-|-fill 1-|---5---5---5---5---5---5---5---5-|---5---5---5---5---5---5--5----|
D-|-- x4 --|---------------------------------|-------------------------------|
A-|--------|---------------------------------|-------------------------------|
E-|--------|---------------------------------|-------------------------------|
            \--------------v----------------/|
                        fill 3               |--------|
                                             |--------|
                                             |--6-5---|
                                             |-- x8 --|
                                             |--------|
                                             |--------|

E-|--------------------------------------| \
B-|--9-----9\----6---6\--6---6\---6---6\-| |
G-|-10----10\----8---8\--6---6\---8---8\-| |
D-|-10----10\----8---8\--6---6\---8---8\-| |
A-|--------8\------6-6\----4-4\-----6-6\-| |
E-|--------------------------------------| |
  |                                      | >fill 4
E-|--------------------------------------| |
B-|--------------------------------------| |
G-|-10-------10\-8----8\-6------6/-8---8/| |
D-|-10-------10\-8----8\-6------6/-8---8/| |
A-|-8---------8\-6----6\-4------4/-6---6/| |
E-|--------------------------------------|/

fill 4
fill 7
guitar 3
E-|------------------|
B-|------------------|
G-|-------------1----|
D-|---------------3--|
A-|-------1-3-4------|
E-|-1-3-4------------|


guitar 1,2
E-|--------|--------|---------------------|--------|
B-|--------|--------|---------------------|--------|
G-|--------|--------|-10----10--10--10----|--------|
D-|-fill 1-|-fill 4-|-10----10--10--10----|-fill 2-|
A-|-- x4 --|--------|--8------------------|-- x4 --|
E-|--------|--------|---------------------|--------|
                    |                     |        |
                    |---------------------|--------|
                    |------8----9---------|--------|
                    |-10---8---10---6-----|--6-5---|
                    |-10---8---10---6-----|- x8 ---|
                    |--8---6--------4-----|--------|
                    |---------------------|--------|
                    |                     \---v---/
                    | guitar3               fill 8
                  E-|-------------------------|
                  B-|-------------------------|
                  G-|-5-----5-----5-----53333-|
                  D-|--3333--5555--6666-------|
                  A-|-------------------------|
                  E-|-------------------------|
                     \------------v-----------/
                               fill 5

E-|-6-------3---3---3---3---3--|--------|-----------4---4-6-8--|
B-|-4-------5---5---4---4---3--|--------|-----------6---6-8-9--|
G-|-------5---5---5---5---5-5--|-fill 2-|-------------5--------|
D-|----------------------------|-- x2 --|----------------------|
A-|----------------------------|--------|----------------------|
E-|----------------------------|--------|----------------------|
  |                                                            |
E-|--4--4--6--6--6--8--8--8/13-|-8---8-----8---------8---------|
B-|---6--6--6--65-6--6--6------|---6---6--6--6-6--6-6--6-8-8b9-|
G-|-5--5--5--5-----5--5--5-----|-------------------------------|
D-|----------------------------|-------------------------------|
A-|----------------------------|-------------------------------|
E-|----------------------------|-------------------------------|

E-|-4---4---3---3---3---3---3----|-------------------|
B-|-6---6---5---5---4---4---3----|-------------------|
G-|---5---5---5---5---5---5-5----|-------fill 2------|
D-|------------------------------|-------- x2 -------|
A-|------------------------------|-------------------|
E-|------------------------------|-------------------|
  |                              |                   |
E-|--4----4--4--6---6--8--8--8/13|-8---8-------8-----|
B-|--------6--6------6--6--6-----|---6---6---6---6-6-|
G-|-5----5--5--5---5--5--5--5----|-------------------|
D-|------------------------------|-------------------|
A-|------------------------------|-------------------|
E-|------------------------------|-------------------|

fill 4, fill 5, fill 8
guitar 3
E-|-------------------------8---------------------------------|
B-|---------------------------8-11-8----------------8---11b13-|
G-|-8-9-----10-8----8-10b12----------10-8------8-10---8-------|
D-|----10--------10-------------------------10----------------|
A-|-----------------------------------------------------------|
E-|-----------------------------------------------------------|

guitar 1,2
E-|-----------------------------------------|
B-|-----------------------------------------|
G-|-----------------------------------------|
D-|-----------------------------------------|
A-|-1---1-3---3-4---4-6-6\------------------|
E-|-------------------------1-1-1-1-1-1-1-1-|
  |                                         |
E-|-----------------------------------------|
B-|-----------------------------------------|
G-|-3---3-5---5-6---6-8---------------------|
D-|-3---3-5---5-6---6-8---------------------|
A-|-------------------------3-3-3-3-3-3-3-3-|
E-|-------------------------1-1-1-1-1-1-1-1-|

guitar 3
E-|-12b13-12b13-12b13-12b13-13-11--------------------------|
B-|-------------------------------13-11--------------------|
G-|-------------------------------------13-10---8----------|
D-|-----------------------------------------------10-8-6---|
A-|------------------------------------------------------8\|
E-|--------------------------------------------------------|

guitar 1,2
E-|----------------------------------/4-4-4-4-4-4-4/6--6---6---8---8--8---8---|
B-|----------------------------------/4-4-4-4-4-4-4/6--6---6---8---8--8---8---|
G-|---------------------------------------------------------------------------|
D-|-3---3-5---5-6---6-8-------------------------------------------------------|
A-|-1---1-3---3-4---4-6-3-3-3-3-----------------------------------------------|
E-|---------------------1-1-1-1-----------------------------------------------|
  |
guitar 3
E-|---------------------------------------------------------------------------|
B-|----------------------------4-4---6------6-9-9-6-9-11-11b-11b-11b-11b-11b12|
G-|-----------1-1---3-1---1-3/5----5---8-8-8----------------------------------|
D-|-3-1---1-3-----3-----3-----------------------------------------------------|
A-|-----3---------------------------------------------------------------------|
E-|---------------------------------------------------------------------------|

E-|------------------------------------------------|---------|
B-|------------------------------------------------|---------|
G-|------------------------------------------------|---------|
D-|-3----------------------------------------------| fill 2  |
A-|-1---1-3---3-4---4-6---6------------------------|-- x4 ---|
E-|-------------------------1---1-3---3-4---4-6----|---------|

E-|--------------------------------------------------------------------|
B-|--------------------------------------------------------------------|
G-|--------------------------------------------------------------------|
D-|--------------------------------------------------------------------|
A-|--------------------------------------------------------------------|
E-|-1---1-3---3-5---5-6---6-8---8-10--10-11--11-13--13\8-8-8-8-8-8-8-8-|

fill 4, fill 4, fill 4, fill 5, fill 2........ 
guitar 1: right
guitar 2: left
guitar 3: left





Comments


Popular Aerosmith tabs & chords
Big Ten-inch Record Bass Tabs
Come Together Bass Tabs
I Dont Want To Miss A Thing 3 Bass Tabs
Pink 2 Bass Tabs
I Don't Want To Miss A Thing Chords
Flesh Tabs
No More No More 1 Tabs
Season Of Wither 1 Tabs
Walk This Way Tabs
Fly Away From Here Ukulele


Song lyrics



↑ Back to top | Tablatures and chords are parodies/interpretations of the original songs. You may use it for private study, scholarship, research or language learning purposes only
© 2014 AZChords.com Contact us | Privacy policy | DMCA | Add/correct tabs | Request tabs | Top 50 tabs