» » »

A Day To Remember, Nj Legion Iced Tea Tabs (ver.1)

Artists:  A B C D E F G H I J K L M N O P Q R S T U V W X Y Z # 

Nj Legion Iced Tea Tabs (ver.1)

A Day To Remember Tabs
 Rating:
4/5 (4 votes)
Nj Legion Iced Tea lessons Tabs too difficult? Try these video lessons and learn fast
1
                [Update] 16/08/09

The Lead during the Bridge!

I just checked the lead here and realised it was complete (well not completely) off! :D
________________________________________________________________

Another song off A Day To Remembers awesome album Homesick!

My Third Tab!

Again if theres any problems and you think you know the corrections just let me know!
:)


Drop C Tuning.
Rhythm Guitar & Lead

(Lead follows rhythm apart from the parts ive tab separately)

Key
(X) Mutes.
(.) Palm Mutes.
(~) Hold Note.
(/) Slide up to. Don’t count the ones under the string
    Letters.

Instead of redoing every chorus ive just put parts in which tell you to repeat certain
They should be easy to follow!

Listen carefully to the song to find out the strumming patterns.


Intro (0:00)

D:---------------------------------|
A:---------------------------------| (x1) For Rhythem Guitar
F:-6-6-6/7-7-7-7/14141414/11111111-|
C:-x-x-x-x-x-x-x-x-x-x-x--x-x-x-x--|
G:-4-4-4/5-5-5-5/12121212/9-9-9-9--| (x5) For Lead Guitar
C:---------------------------------|

D:---------------------------------|
A:---------------------------------|
F:---------------------------------|
C:-9999999-5555555-0000000-7777777-| (x2)
G:-9999999-5555555-0000000-7777777-|
C:-9999999-5555555-0000000-7777777-|


Verse (0:16)

D:--------------------------------------------------|
A:--------------------------------------------------|
F:--------------------------------------------------|
C:--------------------------------------------------|
G:-000-000-00000-12-000-12-000-000-00000-12-000-12--|
C:-000-000-00000----000----000-000-00000----000-----|
/:-...-...-.....----...----...-...-.....----...-----|

D:-----------------|
A:-----------------|
F:-----------------|
C:-9999999-5555555-|
G:-9999999-5555555-|
C:-9999999-5555555-|

D:--------------------------------------------------|
A:--------------------------------------------------|
F:--------------------------------------------------|
C:--------------------------------------------------|
G:-000-000-00000-12-000-12-000-000-00000-12-000-12--|
C:-000-000-00000----000----000-000-00000----000-----|

D:-----------------|
A:-----------------|
F:-----------------|
C:-5555555-7777777-|
G:-5555555-7777777-|
C:-5555555-7777777-|


Pre Chorus (0:35)

D:----------------------------------|
A:----------------------------------|
F:----------------------------------|
C:-99-999-9-9-9-99--77-777-7-7-7-77-|
G:-99-999-9-9-9-99--77-777-7-7-7-77-|
C:-99-999-9-9-9-99--77-777-7-7-7-77-|

[Rhythm] Im not sure about the fours? (0:42)

D:----------------------------------|
A:----------------------------------|
F:----------------------------------|
C:-4444444-4444444-5555555-7777777--|
G:-4444444-4444444-5555555-7777777--|
C:-4444444-4444444-5555555-7777777--|

[Lead]

D:----------------------|
A:-15-14----12----------|
F:-------14----14-12-11-| (x4)
C:----------------------|
G:----------------------|
C:----------------------|


Chorus (0:48)

D:---------------------------------|
A:---------------------------------| (x1) For Rhythem Guitar
F:-6-6-6/7-7-7-7/14141414/11111111-|
C:-x-x-x-x-x-x-x-x-x-x-x--x-x-x-x--|
G:-4-4-4/5-5-5-5/12121212/9-9-9-9--| (x5) For Lead Guitar
C:---------------------------------|

D:---------------------------------|
A:---------------------------------|
F:---------------------------------|
C:-9999999-5555555-0000000-7777777-| (x2)
G:-9999999-5555555-0000000-7777777-|
C:-9999999-5555555-0000000-7777777-|

|------------|
   (Repeat)

    Verse     (1:04)

  Pre Chorus  (1:23)
|------------|


Chorus 2 (1:36)

D:---------------------------------|
A:---------------------------------| (x1) For Rhythem Guitar
F:-6-6-6/7-7-7-7/14141414/11111111-|
C:-x-x-x-x-x-x-x-x-x-x-x--x-x-x-x--|
G:-4-4-4/5-5-5-5/12121212/9-9-9-9--| (x9) For Lead Guitar

D:---------------------------------|
A:---------------------------------|
F:---------------------------------|
C:-9999999-5555555-0000000-7777777-| (x8)
G:-9999999-5555555-0000000-7777777-|
C:-9999999-5555555-0000000-7777777-|


Bridge (2:05)

[Rhythm]

D:---------------------------------|
A:---------------------------------|
F:---------------------------------|
C:-2-2222222222222-5-5555555555555-|
G:-2-2222222222222-5-5555555555555-|
C:-2-2222222222222-5-5555555555555-|
/:---.............---.............-|

D:------------------------------------|
A:------------------------------------|
F:------------------------------------|
C:-9-999999-7-777777-5-55555555555-55-|
G:-9-999999-7-777777-5-55555555555-55-|
C:-9-999999-7-777777-5-55555555555-55-|
/----......---......---...........----|

This time round there are extra stums.
Ive tabbed it to what I think sounds right!
Its easier to understand if you listen to the song.

(2:19)
D:-----------------------------------|
A:-----------------------------------|
F:-----------------------------------|
C:-2-222222-2-2-2-2-2-222222-2-2-2-2-|
G:-2-222222-2-2-2-2-2-222222-2-2-2-2-|
C:-2-222222-2-2-2-2-2-222222-2-2-2-2-|
/:---...............................-|

D:-----------------------------------|
A:-----------------------------------|
F:-----------------------------------|
C:-5-555555-5-5-5-5-5-555555-5-5-5-5-|
G:-5-555555-5-5-5-5-5-555555-5-5-5-5-|
C:-5-555555-5-5-5-5-5-555555-5-5-5-5-|
/:---...............................-|

D:------------------------------------|
A:------------------------------------|
F:------------------------------------|
C:-9-999999-7-777777-5-55555555555-5~-|
G:-9-999999-7-777777-5-55555555555-5~-|
C:-9-999999-7-777777-5-55555555555-5~-|
/----......---......---...........----|

[Lead] (2:05)

D:--------------------------------|
A:--------------------------------|
F:-7-7-7-6-6-6-6-7-7-7-7-14141414-| (x2)
C:-x-x-x-x-x-x-x-x-x-x-x-x-x-x-x--|
G:-5-5-5-4-4-4-4-5-5-5-5-12-12-12-|
C:--------------------------------|

D:--------------------------------|
A:--------------------------------|
F:-11-11-11-11-11/12-9-9-9-9-9/11-|
C:-x-x-x-x-x-x-x-x-x-x-x-x-x-x--x-| (2:12)
G:-9-9-9-9-9-9--9/14-7-7-7-7-7/-9-|
C:--------------------------------|

D:-----------------------------|
A:-----------------------------|
F:-----------------------------|
C:-7-7-7-7-7-7-7-7-7-7-7-7-7-7-|
G:-x-x-x-x-x-x-x-x-x-x-x-x-x-x-|
C:-5-5-5-5-5-5-5-5-5-5-5-5-5-5-|

(This is the life...)

D:-------------------------------|
A:-------------------------------|
F:-------------------------------|
C:-7-7-7-7-7-7-7-7-6-6-6-6-7-7-7-| (2:19)
G:-x-x-x-x-x-x-x-x-x-x-x-x-x-x-x-|
C:-5-5-5-5-5-5-5-5-4-4-4-4-5-5-5-|

D:----------------------------------|
A:----------------------------------|
F:-9-9-9-9-9-9-9-9-9/7-7-7-7-121212-|
C:-x-x-x-x-x-x-x-x-x-x-x-x-x-x-x-x--| 
G:-7-7-7-7-7-7-7-7-7/5-5-5-5-101010-|
C:----------------------------------|

D:-------------------------------------|
A:-------------------------------------|
F:-1212121212121212/111111111111111----|
C:-x-x-x-x-x-x-x-x-x-x-x-x-x-x-x-x--5~-| (2:25)
G:-1010101010101010/9-9-9-9-9-9-9-9-5~-|
C:----------------------------------5~-|


Breakdown (2:31)

D:-----------------------|
A:-----------------------|
F:-----------------------|
C:-----------------------| (x4)
G:-----------------------|
C:-0-00-00--0-00-0000000-|
/:-.-..-..--.-..-.......-|


Chorus 3  (2:45)

D:---------------------------------|
A:---------------------------------| (x1) For Rhythem Guitar
F:-6-6-6/7-7-7-7/14141414/11111111-|
C:-x-x-x-x-x-x-x-x-x-x-x--x-x-x-x--|
G:-4-4-4/5-5-5-5/12121212/9-9-9-9--| (x5) For Lead Guitar
C:---------------------------------|

D:---------------------------------|
A:---------------------------------|
F:---------------------------------|
C:-9999999-5555555-0000000-7777777-| (x4)
G:-9999999-5555555-0000000-7777777-|
C:-9999999-5555555-0000000-7777777-|

[Lead] (3:01)

D:----------------------|
A:-15-14----12----------|
F:-------14----14-12-11-| (x8)
C:----------------------|
G:----------------------|
C:----------------------|


One Final Chorus (3:14)

[Rhythm]

D:--------------------------------------|
A:--------------------------------------|
F:--------------------------------------|
C:-9999999-5555555-0000000-7777-77---0~-|
G:-9999999-5555555-0000000-7777-77---0~-|
C:-9999999-5555555-0000000-7777-77---0~-|

[Lead]

D:----------------------|
A:-15-14----12----------|
F:-------14----14-12-11-| (x4) (On the last time dont play the last note)
C:----------------------|
G:----------------------|
C:----------------------|

This was pretty arkward to tab out!
Sorry I couldn't tab out the breakdown better.
It should be readable though but if not just keep
listening to the song until you've got it!

I think ive got the lead guitar right! [Update made it sound perfect] :D

Hope You Enjoy Playing It!

Intro
Verse 1
Pre Chorus 1
Chorus 1
Verse 2
Pre Chorus 2
Chorus 2
Bridge
Breakdown
Chorus 3
One Final Chorus
            
Submit corrections

comments powered by Disqus
↑ Back to top | A Day To Remember Tabs for Nj Legion Iced Tea. Lyrics for acoustic guitar and electric guitar. 1 Tablatures and chords are parodies/interpretations of the original songs. You may use it for private study, scholarship, research or language learning purposes only