>
 >
Nj Legion Iced Tea 1

Nj Legion Iced Tea 1 Guitar Tabs

A Day To Remember - Nj Legion Iced Tea 1 chords, tabs, tablatures, lyrics

Guitar lessons | Add/correct | Request | Top 50 tabs Artists:  A B C D E F G H I J K L M N O P Q R S T U V W X Y Z 0-9

Nj Legion Iced Tea 1 Guitar Tabs – A Day To Remember

CD, Sheet music, Poster

Do you like Nj Legion Iced Tea 1? Share with your friends now
Bass TabsBass Tabs v2ChordsTabsTabs v2Tabs v3Ukulele
----------------------------------------------------------------------------
                 NJ LEGION ICED TEA by A DAY TO REMEMBER
                          on the HOMESICK album
----------------------------------------------------------------------------

TUNING: Drop A# (A# F A# D# G C) or
                (Bb F Bb Eb G C)               


.  palm mute
~  hold note
\  slide down
/  slide up
x  mute string



INTRO: 

Guitar 1 (x5)                                    the last time, strum 
                                                 final note five times:
C |--0--0-0--0-0-0-0--0--0--0--0---0-0-0-0---|   C |----0-0-0-0-0----|
G |--4--4-4--5-5-5-5--12-12-12-12--9-9-9-9---|   G |----9-9-9-9-9----|
D#|------------------------------------------|   D#|-----------------|
A#|------------------------------------------|   A#|-----------------|
F |------------------------------------------|   F |-----------------|
A#|------------------------------------------|   A#|-----------------|


Guitar 2 (x2)

C |------------------------------------------------------------------------|
G |------------------------------------------------------------------------|
D#|--6--6-6-6-6-6-6--2-2-2-2-2-2-2-2-------------------4-4-4-4-4-4-4-4-----|
A#|--6--6-6-6-6-6-6--2-2-2-2-2-2-2-2--2-2-2-2-2-2-2-2--4-4-4-4-4-4-4-4-----|
F |--4--4-4-4-4-4-4--0-0-0-0-0-0-0-0--2-2-2-2-2-2-2-2--2-2-2-2-2-2-2-2-----|
A#|-----------------------------------2-2-2-2-2-2-2-2----------------------|


VERSE:

C |----------------------0-------0----------------------0-------0----|
G |----------------------5-------5----------------------5-------5----|
D#|----------------------4-------4----------------------4-------4----|
A#|--2-2-2--2-2-2--22222---2-2-2----2-2-2--2-2-2--22222---2-2-2------|
F |--2-2-2--2-2-2--22222---2-2-2----2-2-2--2-2-2--22222---2-2-2------|
A#|--2-2-2--2-2-2--22222---2-2-2----2-2-2--2-2-2--22222---2-2-2------|
     . . .  . . .  .....   . . .    . . .  . . .  .....   . . .

C |--0-0-0-0-0-0-0-0--0-0-0-0-0-0-0-0---|
G |--0-0-0-0-0-0-0-0--0-0-0-0-0-0-0-0---|
D#|--4-4-4-4-4-4-4-4--4-4-4-4-4-4-4-4---|
A#|--2-2-2-2-2-2-2-2--2-2-2-2-2-2-2-2---|
F |--4-4-4-4-4-4-4-4--0-0-0-0-0-0-0-0---|
A#|-------------------------------------|

C |----------------------0-------0----------------------0-------0----|
G |----------------------5-------5----------------------5-------5----|
D#|----------------------4-------4----------------------4-------4----|
A#|--2-2-2--2-2-2--22222---2-2-2----2-2-2--2-2-2--22222---2-2-2------|
F |--2-2-2--2-2-2--22222---2-2-2----2-2-2--2-2-2--22222---2-2-2------|
A#|--2-2-2--2-2-2--22222---2-2-2----2-2-2--2-2-2--22222---2-2-2------|
     . . .  . . .  .....   . . .    . . .  . . .  .....   . . .

C |--0-0-0-0-0-0-0-0--0-0-0-0-0-0-0----|
G |--0-0-0-0-0-0-0-0--0-0-0-0-0-0-0----|
D#|--4-4-4-4-4-4-4-4--4-4-4-4-4-4-4----|
A#|--2-2-2-2-2-2-2-2--2-2-2-2-2-2-2----|
F |--0-0-0-0-0-0-0-0--2-2-2-2-2-2-2----|
A#|------------------------------------|


PRECHORUS:
                                               Guitar 1  Guitar 2
C |--0--0000--0--0--0--000-0--0000--0--0--0--||---00---||--------||
G |--0--0000--0--0--0--000-0--0000--0--0--0--||---00---||--------||
D#|--4--4444--4--4--4--444-4--4444--4--4--4--||---44---||--------||
A#|--2--2222--2--2--2--222-2--2222--2--2--2--||---22---||---9\---||
F |--4--4444--4--4--4--444-2--2222--2--2--2--||---22---||---9\---||
A#|------------------------------------------||--------||---9\---||


         Guitar 1 (x4)                           Guitar 2

C |--12p11------------------|    C |--------------------------------------|
G |--------12/14-12----12---|    G |--------------------------------------|
D#|-----------------13------|    D#|-------------------22222222-44444444--|
A#|-------------------------|    A#|--4444444444444444-22222222-44444444--|
F |-------------------------|    F |--4444444444444444-00000000-22222222--|
A#|-------------------------|    A#|--4444444444444444--------------------|


CHORUS:

            Guitar 1                 Guitar 1    Guitar 2
C |--0--0-0--0-0-0-0--0--0--0--0---||--0-0-0--||---x-x---||
G |--4--4-4--5-5-5-5--12-12-12-12--||--9-9-9--||---x-x---||
D#|--------------------------------||---------||---x-x---||
A#|--------------------------------||---------||---x-x---||
F |--------------------------------||---------||---x-x---||
A#|--------------------------------||---------||---x-x---||


Guitar 1 (x4)                                    the last time, strum 
                                                 final note five times:
C |--0--0-0--0-0-0-0--0--0--0--0---0-0-0-0---|   C |----0-0-0-0-0----|
G |--4--4-4--5-5-5-5--12-12-12-12--9-9-9-9---|   G |----9-9-9-9-9----|
D#|------------------------------------------|   D#|-----------------|
A#|------------------------------------------|   A#|-----------------|
F |------------------------------------------|   F |-----------------|
A#|------------------------------------------|   A#|-----------------|


Guitar 2 (x2)

C |------------------------------------------------------------------------|
G |------------------------------------------------------------------------|
D#|--6--6-6-6-6-6-6--2-2-2-2-2-2-2-2-------------------4-4-4-4-4-4-4-4-----|
A#|--6--6-6-6-6-6-6--2-2-2-2-2-2-2-2--2-2-2-2-2-2-2-2--4-4-4-4-4-4-4-4-----|
F |--4--4-4-4-4-4-4--0-0-0-0-0-0-0-0--2-2-2-2-2-2-2-2--2-2-2-2-2-2-2-2-----|
A#|-----------------------------------2-2-2-2-2-2-2-2----------------------|


VERSE:

C |----------------------0-------0----------------------0-------0----|
G |----------------------5-------5----------------------5-------5----|
D#|----------------------4-------4----------------------4-------4----|
A#|--2-2-2--2-2-2--22222---2-2-2----2-2-2--2-2-2--22222---2-2-2------|
F |--2-2-2--2-2-2--22222---2-2-2----2-2-2--2-2-2--22222---2-2-2------|
A#|--2-2-2--2-2-2--22222---2-2-2----2-2-2--2-2-2--22222---2-2-2------|
     . . .  . . .  .....   . . .    . . .  . . .  .....   . . .

C |--0-0-0-0-0-0-0-0--0-0-0-0-0-0-0-0---|
G |--0-0-0-0-0-0-0-0--0-0-0-0-0-0-0-0---|
D#|--4-4-4-4-4-4-4-4--4-4-4-4-4-4-4-4---|
A#|--2-2-2-2-2-2-2-2--2-2-2-2-2-2-2-2---|
F |--4-4-4-4-4-4-4-4--0-0-0-0-0-0-0-0---|
A#|-------------------------------------|

C |----------------------0-------0----------------------0-------0----|
G |----------------------5-------5----------------------5-------5----|
D#|----------------------4-------4----------------------4-------4----|
A#|--2-2-2--2-2-2--22222---2-2-2----2-2-2--2-2-2--22222---2-2-2------|
F |--2-2-2--2-2-2--22222---2-2-2----2-2-2--2-2-2--22222---2-2-2------|
A#|--2-2-2--2-2-2--22222---2-2-2----2-2-2--2-2-2--22222---2-2-2------|
     . . .  . . .  .....   . . .    . . .  . . .  .....   . . .

C |--0-0-0-0-0-0-0-0--0-0-0-0-0-0-0----|
G |--0-0-0-0-0-0-0-0--0-0-0-0-0-0-0----|
D#|--4-4-4-4-4-4-4-4--4-4-4-4-4-4-4----|
A#|--2-2-2-2-2-2-2-2--2-2-2-2-2-2-2----|
F |--0-0-0-0-0-0-0-0--2-2-2-2-2-2-2----|
A#|------------------------------------|


PRECHORUS:
                                               Guitar 1  Guitar 2
C |--0--0000--0--0--0--000-0--0000--0--0--0--||---00---||--------||
G |--0--0000--0--0--0--000-0--0000--0--0--0--||---00---||--------||
D#|--4--4444--4--4--4--444-4--4444--4--4--4--||---44---||--------||
A#|--2--2222--2--2--2--222-2--2222--2--2--2--||---22---||---9\---||
F |--4--4444--4--4--4--444-2--2222--2--2--2--||---22---||---9\---||
A#|------------------------------------------||--------||---9\---||


         Guitar 1 (x4)                           Guitar 2

C |--12p11------------------|    C |--------------------------------------|
G |--------12/14-12----12---|    G |--------------------------------------|
D#|-----------------13------|    D#|-------------------22222222-44444444--|
A#|-------------------------|    A#|--4444444444444444-22222222-44444444--|
F |-------------------------|    F |--4444444444444444-00000000-22222222--|
A#|-------------------------|    A#|--4444444444444444--------------------|


CHORUS:

            Guitar 1                 Guitar 1    Guitar 2
C |--0--0-0--0-0-0-0--0--0--0--0---||--0-0-0--||---x-x---||
G |--4--4-4--5-5-5-5--12-12-12-12--||--9-9-9--||---x-x---||
D#|--------------------------------||---------||---x-x---||
A#|--------------------------------||---------||---x-x---||
F |--------------------------------||---------||---x-x---||
A#|--------------------------------||---------||---x-x---||


Guitar 1 (x8)                                    the last time, strum 
                                                 final note five times:
C |--0--0-0--0-0-0-0--0--0--0--0---0-0-0-0---|   C |----0-0-0-0-0----|
G |--4--4-4--5-5-5-5--12-12-12-12--9-9-9-9---|   G |----9-9-9-9-9----|
D#|------------------------------------------|   D#|-----------------|
A#|------------------------------------------|   A#|-----------------|
F |------------------------------------------|   F |-----------------|
A#|------------------------------------------|   A#|-----------------|


Guitar 2 (x4)

C |------------------------------------------------------------------------|
G |------------------------------------------------------------------------|
D#|--6--6-6-6-6-6-6--2-2-2-2-2-2-2-2-------------------4-4-4-4-4-4-4-4-----|
A#|--6--6-6-6-6-6-6--2-2-2-2-2-2-2-2--2-2-2-2-2-2-2-2--4-4-4-4-4-4-4-4-----|
F |--4--4-4-4-4-4-4--0-0-0-0-0-0-0-0--2-2-2-2-2-2-2-2--2-2-2-2-2-2-2-2-----|
A#|-----------------------------------2-2-2-2-2-2-2-2----------------------|


BREAKDOWN, PART 1:

Guitar 1

C |------------------------------------------------------------------------|
G |--4--5-5-5-5-5-5-5-4-5-5-5-12-12-12---4--5-5-5-5-5-5-5-4-5-5-5-12-12-12-|
D#|------------------------------------------------------------------------|
A#|------------------------------------------------------------------------|
F |------------------------------------------------------------------------|
A#|------------------------------------------------------------------------|

C |------------------------------------------------------------------------|
G |--9--9-9-9-9-9-9---7--7-7-7-7-9-7---5--5-5-5-5-5-5-5-5-5-5-5-5--5-5-----|
D#|------------------------------------------------------------------------|
A#|------------------------------------------------------------------------|
F |------------------------------------------------------------------------|
A#|------------------------------------------------------------------------|

C |----0---0---0---0---0---0---0---0---0---0---0---0---0---0---0---0---|
G |--5---5---5---5---4---4---5---5---7---7---7---7---7---5---5---5-----|
D#|--------------------------------------------------------------------|
A#|--------------------------------------------------------------------|
F |--------------------------------------------------------------------|
A#|--------------------------------------------------------------------|

C |-----0----0----0----0---0---0---0---0---0~----|
G |--10---10---10---10---9---9---9---9-----5~----|
D#|----------------------------------------------|
A#|----------------------------------------------|
F |----------------------------------------------|
A#|----------------------------------------------|


Guitar 2

C |------------------------------------------------------------------------|
G |------------------------------------------------------------------------|
D#|-------------------2-2222222222222--6-66666--4-44444--2-2222222222--2-2-|
A#|--4-4444444444444--2-2222222222222--4-44444--4-44444--2-2222222222--2-2-|
F |--4-4444444444444--0-0000000000000--4-44444--2-22222--0-0000000000--0-0-|
A#|--4-4444444444444-------------------------------------------------------|
       .............    .............    .....    .....    ..........  

C |-----------------------------------------------------------------|
G |-----------------------------------------------------------------|
D#|-----------------------------------------------------------------|
A#|--4---------------------------4/7--------------------------------|
F |--4-44444-4-4-4-4-4-4-4-4-4-4-4/7-77777-7-7-7-7-7-7-7-7-7-7-7----|
A#|--4-44444-4-4-4-4-4-4-4-4-4-4-4/7-77777-7-7-7-7-7-7-7-7-7-7-7----|
       ..... . . . . . . . . . .     ..... . . . . . . . . . . .

C |------------------------------------0~-----|
G |------------------------------------0~-----|
D#|--6--6-6-6-6-6-6---4--4-4-4-4-4-4---4~-----|
A#|--6--6-6-6-6-6-6---4--4-4-4-4-4-4---2~-----|
F |--4--4-4-4-4-4-4---2--2-2-2-2-2-2---0~-----|
A#|-------------------------------------------|
        . . . . . .      . . . . . .


BREAKDOWN, PART 2:

C |---------------------------|
G |---------------------------|
D#|---------------------------|
A#|---------------------------|  (x4)
F |--2--22-22---2-22-2222222--|
A#|--2--22-22---2-22-2222222--|
     .  .. ..   . .. .......


CHORUS/OUTRO:

            Guitar 1                  Guitar 1     Guitar 2
C |--0--0-0--0-0-0-0--0--0--0--0---||--0-0-0--||---x-x---||
G |--4--4-4--5-5-5-5--12-12-12-12--||--9-9-9--||---x-x---||
D#|--------------------------------||---------||---x-x---||
A#|--------------------------------||---------||---x-x---||
F |--------------------------------||---------||---x-x---||
A#|--------------------------------||---------||---x-x---||


Guitar 1                                        
                                                      
C |--0--0-0--0-0-0-0--0--0--0--0---0-0-0-0---|
G |--4--4-4--5-5-5-5--12-12-12-12--9-9-9-9---|
D#|------------------------------------------|
A#|------------------------------------------|  (x4)
F |------------------------------------------|
A#|------------------------------------------|

C |--12p11------------------|
G |--------12/14-12----12---|
D#|-----------------13------|  (x12)
A#|-------------------------|  On 12th time playing through,
F |-------------------------|  DO NOT play the last 12
A#|-------------------------|

C |----0~----|
G |----5~----|
D#|----4~----|
A#|----2~----|
F |----2~----|
A#|----2~----|


Guitar 2 

C |-------------------------------------------------------------------|
G |-------------------------------------------------------------------|
D#|-6--6-6-6-6-6-6--2-2-2-2-2-2-2-2-------------------4-4-4-4-4-4-4-4-|
A#|-6--6-6-6-6-6-6--2-2-2-2-2-2-2-2--2-2-2-2-2-2-2-2--4-4-4-4-4-4-4-4-| (x5)
F |-4--4-4-4-4-4-4--0-0-0-0-0-0-0-0--2-2-2-2-2-2-2-2--2-2-2-2-2-2-2-2-|
A#|----------------------------------2-2-2-2-2-2-2-2------------------|
                                            on last time playing through,
C |----------|                               DO NOT play the last x244xx
G |----------|
D#|----------|
A#|----2~----|
F |----2~----|
A#|----2~----|





Comments


Popular A Day To Remember tabs & chords
1958 Bass Tabs
Im Made Of Wax Larry What Are You Made Of 2 Bass Tabs
My Life For Hire Bass Tabs
All I Want 4 Chords
End Of Me 1 Chords
Homesick Chords
If It Means Alot To You 2 Chords
This Sun Has Set Tabs
Westfall Tabs
You Had Me At Hello 6 Tabs


Song lyrics



↑ Back to top | Tablatures and chords are parodies/interpretations of the original songs. You may use it for private study, scholarship, research or language learning purposes only
© 2014 AZChords.com Contact us | Privacy policy | DMCA | Add/correct tabs | Request tabs | Top 50 tabs