» » »

A Day To Remember, I Heard Its The Softest Thing Ever Tabs (ver.3)

Artists:  A B C D E F G H I J K L M N O P Q R S T U V W X Y Z # 

I Heard Its The Softest Thing Ever Tabs (ver.3)

A Day To Remember Tabs
 Rating:
4/5 (4 votes)
I Heard Its The Softest Thing Ever lessons Tabs too difficult? Try these video lessons and learn fast
                Rytham Guitar part.
NOT ENTIERLY SURE IF IT IS 100% CORRECT.

(All musical credit and writing goes to ADTR)

Intro
(0:07)-(0:13)
 D------------|
 A------------|
 F------------|
 C-0~--8-8----|
 G-0~--8-8----|
 C-0~--8-8----|


Pre-Verse X2
(0:15)-(0:29)THE PATTEN IS NOT TO HARD TO FIND OUT.
 D---------------|
 A---------------|
 F---------------|
 C---------------|
 G--00--55--88---|
 C--00--55--88---|
PM  ..  ..  ..

SECOND TIME AROUND ENDS WITH THIS
 D----------|
 A----------|
 F----------|
 C-(MAINLY A SLIDE FROM THE 8TH FRET TO THE 1ST HARD TO EXPLAIN)
 G-8/-------|
 C-8/-------|

Verse X2
(O:30)-(0:43)
 D------------------------------------|
 A------------------------------------|
 F------------------------------------|
 C----------------55555555--88888888--|
 G--0000--000000--55555555--88888888--|
 C--0000--000000--55555555--88888888--|
PM  ....  ......
Pre-Chours
(0:44)-(0:50)
 D----------------------|
 A----------------------|
 F----------------------|
 C-1-(X15)--------------|
 G-3--------5-(X15)--5/-|
 C----------5--------5/-|

Chours X2
(0:51)-(1:20) AGAIN STRUMMING PATTEN IS NOT AT ALL DIFFICULT
 D---------------|
 A---------------|
 F-----1---------|
 C--0--3--3--5---|
 G--0--3--3--5---|
 C--0-----3--5---|

REPEAT Pre-Verse (X2) (1:26)-(1:40)

THEN Verse (X2) (1:41)-(1:53)

THEN Pre-Chours (1:54)-(2:02)

THEN Chours (X2) (2:03)-(2:29)

Breakdown
(2:30)-(2:58)
 D----------------------------|--SECONED PART--------------|
 A----------------------------|----------------------------|
 F----------------------------|----------------------------|
 C----------------------------|----------------------------|
 G--0000--000000--(X3)--0000--|--0000~--000000~--(X4)------|
 C--0000--000000--------0000--|--0000~--000000~------------|
PM  ....  ......        ....     ....   ......

Pre-Chours 1A
(2:59)-(3:05)
 D------------------|
 A------------------|
 F------------------|
 C--1(x15)----------|
 G--3-------5(x2)---|
 C----------5-------|

REPEAT Chours (X2) (3:06)-(3:33)

Outro
(3:34)-(3:44)
 D------|
 A------|
 F------|
 C--0~--|
 G--0~--|
 C--0~--|


Rest of the song i don't know remember this tab was only for The Rythm Guitar portion 
folks. ADTR ROCKS!


SONG ORDER

INTRO
PRE-VERSE (X2)
VERSE(X2)
PRE-CHOURS
CHOURS(X2)
PRE-VERSE(X2)
VERSE(X2)
PRE-CHOURS
CHOURS(X2)
BREAKDOWN
PRE-CHOURS 1A
CHOURS (X2)
OUTRO
            
Submit corrections

comments powered by Disqus
↑ Back to top | A Day To Remember Tabs for I Heard Its The Softest Thing Ever. Lyrics for acoustic guitar and electric guitar. Tablatures and chords are parodies/interpretations of the original songs. You may use it for private study, scholarship, research or language learning purposes only