» » »

I Heard Its The Softest Thing Ever Tabs (ver.2)

Artists:  A B C D E F G H I J K L M N O P Q R S T U V W X Y Z # 

I Heard Its The Softest Thing Ever Tabs (ver.2)

A Day To Remember
Rating:
0/5 (0 votes)

Tabs too difficult? Try these video lessons and learn fast.
                I Heard It's the Softest Thing Ever - A Day to Remember

Intro 0:00-0:14
D|--------------------------------------|
A|--------------------------------------|
F|--------------------------------------|x2
C|--------------------------------------|
G|-555-8888-555-88888-888888888-8888888-|
C|-000-0000-000-00000-555555555-8888888-|

Verse 0:15-0:28
D|-------------------------------------------------------------------|
A|-------------------------------------------------------------------|
F|-------------------------------------------------------------------|x2
C|-------------------------------------------------------------------|
G|-------------------------------------------------------------------|
C|-00000000000000000000000000000000-55555555555555555588888888888888-|

Pre-Chorus 0:29-0:49
D|---------------------------------------------------------------------|
A|---------------------------------------------------------------------|
F|---------------------------------------------------------------------|
C|---------------------------------------------------------------------|
G|---------------5555555558888888-x2-5555555555555555-5555555555555555-|
C|-0000-00000000-5555555558888888----0000000000000000-5555555555555555-|

Chorus 0:50-1:18
D|---------------------------------------------------------------------|
A|---------------------------------------------------------------------|
F|---------------------------------------------------------------------|x2
C|---------------------------------------------------------------------|
G|-0000000000000000-3333333333333333-8888888888888888-5555555555555555-|
C|-0000000000000000-3333333333333333-8888888888888888-5555555555555555-|

Interlude 1:19-1:24
D|--------------------------------------|
A|--------------------------------------|
F|--------------------------------------|
C|--------------------------------------|
G|-555-8888-555-88888-888888888-8888888-|
C|-000-0000-000-00000-555555555-8888888-|

Verse 1:25-1:38
D|-------------------------------------------------------------------|
A|-------------------------------------------------------------------|
F|-------------------------------------------------------------------|x2
C|-------------------------------------------------------------------|
G|-------------------------------------------------------------------|
C|-00000000000000000000000000000000-55555555555555555588888888888888-|

Pre-Chorus 1:39-2:00
D|---------------------------------------------------------------------|
A|---------------------------------------------------------------------|
F|---------------------------------------------------------------------|
C|---------------------------------------------------------------------|
G|---------------5555555558888888-x2-5555555555555555-5555555555555555-|
C|-0000-00000000-5555555558888888----0000000000000000-5555555555555555-|

Chorus 2:01-2:28
D|---------------------------------------------------------------------|
A|---------------------------------------------------------------------|
F|---------------------------------------------------------------------|x2
C|---------------------------------------------------------------------|
G|-0000000000000000-3333333333333333-8888888888888888-5555555555555555-|
C|-0000000000000000-3333333333333333-8888888888888888-5555555555555555-|

Breakdown 2:29-2:57
D|--------------------------------------------|
A|--------------------------------------------|
F|--------------------------------------------|
C|--------------------------------------------|
G|-0000-00000000-x3-0000-----0000-00000000-x4-|
C|-0000-00000000----0000-----0000-00000000----|

Pre-Chorus 2:57-3:01
D|-----------------------------------|
A|-----------------------------------|
F|-----------------------------------|
C|-----------------------------------|
G|-5555555555555555-5555555555555555-|
C|-0000000000000000-5555555555555555-|

Chorus 3:05-3:33
D|---------------------------------------------------------------------|
A|---------------------------------------------------------------------|
F|---------------------------------------------------------------------|x2
C|---------------------------------------------------------------------|
G|-0000000000000000-3333333333333333-8888888888888888-5555555555555555-|
C|-0000000000000000-3333333333333333-8888888888888888-5555555555555555-|

Outro 3:34-4:03
D|------------------------------------------0----|
A|----10-----10-----13-----13-----6---6---6--6-6-|
F|--10--10-10--10-10--10-10--10--7-7-7-7-7-7--7--|
C|-0----------------------------5----------------|x3
G|-----------------------------------------------|
C|-----------------------------------------------|
            
Tabs too difficult? Try these video lessons and learn fast.


comments powered by Disqus
↑ Back to top | Tablatures and chords are parodies/interpretations of the original songs. You may use it for private study, scholarship, research or language learning purposes only