» » »

A Day To Remember, Heartless Tabs (ver.2)

Artists:  A B C D E F G H I J K L M N O P Q R S T U V W X Y Z # 

Heartless Tabs (ver.2)

A Day To Remember Tabs
 Rating:
4/5 (4 votes)
Heartless lessons Tabs too difficult? Try these video lessons and learn fast
                I am Garrett Voorhees and this is my first guitar tab!

Verse I
Guitar I and II
D#|-----------------------------------------------------------------|
A#|-----------------------------------------------------------------|
F#|-----------------------------------------------------------------|
C#|-----------------------------------------------------------------|  X3
G#|------------------------1-0-----------------------------1-0------|
C#|0-3-2-0-3-2-0-3-2-0-3-2-----5-3-0-3-2-0-3-2-0-3-2-0-3-2-----5-3--|
PM.+ + + + + + + + + + + + + + + + + + + + + + + + + + + +

D#|-----------------------------------------------------------------|
A#|-----------------------------------------------------------------|
F#|-----------------------------------------------------------------|
C#|-----------------------------------------------------------------|  X1
G#|------------------------1-0-----------------------------1----0---|
C#|0-3-2-0-3-2-0-3-2-0-3-2-----5-3-0-3-2-0-3-2-0-3-2-0-3-2----------|
PM.+ + + + + + + + + + + + + + + + + + + + + + + + + + + +


Prechorus Breakdown I
D#|-----------------------------------------------------------------|
A#|-----------------------------------------------------------------|
F#|-----------------------------------------------------------------|
C#|0---0------0-0--0-0-0-0---0--------------------------------------|  X2
G#|0---0------0-0--0-0-0-0---0--------------------------------------|
C#|0---0------0-0--0-0-0-0---0--------------------------------------|
PM.+   +      + +  + + + +   +


Chorus

Guitar I
D#|----------------------------------------------------------------- \
A#|-----------------------------------------------------------------  |
F#|-----------------------------------------------------------------  |
C#|------------------------------3--3--3-3-3-3--3-3--3-3-3-3--------  |
G#|-------1-0------------1-0-----3--3--3-3-3-3--3-3--3-3-3-3--------  |
C#|0--3-0-----5-0--0-3-0-----5-0-3--3--3-3-3-3--3-3--3-3-3-3--------  |
                                                                      | X2
D#|-----------------------------------------------------------------  |
A#|-----------------------------------------------------------------  |
F#|-----------------------------------------------------------------  |
C#|5--5--5-5-5-5--5-5--5-5-5-5-8--8--8-8-8-8--8-8--8-8-8-8----------  |
G#|5--5--5-5-5-5--5-5--5-5-5-5-8--8--8-8-8-8--8-8--8-8-8-8----------  |
C#|5--5--5-5-5-5--5-5--5-5-5-5-8--8--8-8-8-8--8-8--8-8-8-8----------  /

Guitar II
D#|----------------------------------------------------------------- \
A#|-----------------------------------------------------------------  |
F#|-----------------------------------------------------------------  |
C#|------------------------------3--3--3-3-3-3--3-3--3-3-3-3--------  |
G#|-------1-0------------1-0-----3--3--3-3-3-3--3-3--3-3-3-3--------  |
C#|0--3-0-----5-0--0-3-0-----5-0-3--3--3-3-3-3--3-3--3-3-3-3--------  |
                                                                      |
D#|-----------------------------------------------------------------  |
A#|-----------------------------------------------------------------  |
F#|-----------------------------------------------------------------  |
C#|15-15-14-14-10-10-10-10-15-15-14-14-10-10-10-10-15-15-14-14-10-10  | X2
G#|-----------------------------------------------------------------  |
C#|13-13-12-12-8--8--8--8--13-13-12-12-8--8--8--8--13-13-12-12-8--8-  |
                                                                      |
D#|-----------------------------------------------------------------  |
A#|-----------------------------------------------------------------  |
F#|-----------------------------------------------------------------  |
C#|12-12-12-12-12-12-12-12------------------------------------------  |
G#|-----------------------------------------------------------------  |
C#|10-10-10-10-10-10-10-10------------------------------------------  /



Verse II
Guitar I and II
D#|-----------------------------------------------------------------|
A#|-----------------------------------------------------------------|
F#|-----------------------------------------------------------------|
C#|-----------------------------------------------------------------|  X3
G#|------------------------1-0-----------------------------1-0------|
C#|0-3-2-0-3-2-0-3-2-0-3-2-----5-3-0-3-2-0-3-2-0-3-2-0-3-2-----5-3--|
PM.+ + + + + + + + + + + + + + + + + + + + + + + + + + + +

D#|-----------------------------------------------------------------|
A#|-----------------------------------------------------------------|
F#|-----------------------------------------------------------------|
C#|-----------------------------------------------------------------|  X1
G#|------------------------1-0-----------------------------1--0---*5|
C#|0-3-2-0-3-2-0-3-2-0-3-2-----5-3-0-3-2-0-3-2-0-3-2-0-3-2----------|
PM.+ + + + + + + + + + + + + + + + + + + + + + + + + + + +



Prechorus Breakdown II
Guitar I and II
D#|----------------------|--------------|----------------------------|
A#|----------------------|--------------|----------------------------|
F#|----------------------|--------------|----------------------------|
C#|0-0-0-0--0-0-0-0--0---|X4------------|-0-0-0-0-0-0-0-0------------|
G#|0-0-0-0--0-0-0-0--0---|--------------|-0-0-0-0-0-0-0-0------------|
C#|0-0-0-0--0-0-0-0--0---|-----5B(7)----|-0-0-0-0-0-0-0-0------------|
PM.+ + + +  + + + +  +         2nd time   + + + + + + + + on 4th time



Chorus

Guitar I
D#|----------------------------------------------------------------- \
A#|-----------------------------------------------------------------  |
F#|-----------------------------------------------------------------  |
C#|------------------------------3--3--3-3-3-3--3-3--3-3-3-3--------  |
G#|-------1-0------------1-0-----3--3--3-3-3-3--3-3--3-3-3-3--------  |
C#|0--3-0-----5-0--0-3-0-----5-0-3--3--3-3-3-3--3-3--3-3-3-3--------  |
                                                                      | X2
D#|-----------------------------------------------------------------  |
A#|-----------------------------------------------------------------  |
F#|-----------------------------------------------------------------  |
C#|5--5--5-5-5-5--5-5--5-5-5-5-8--8--8-8-8-8--8-8--8-8-8-8----------  |
G#|5--5--5-5-5-5--5-5--5-5-5-5-8--8--8-8-8-8--8-8--8-8-8-8----------  |
C#|5--5--5-5-5-5--5-5--5-5-5-5-8--8--8-8-8-8--8-8--8-8-8-8----------  /

Guitar II
D#|----------------------------------------------------------------- \
A#|-----------------------------------------------------------------  |
F#|-----------------------------------------------------------------  |
C#|------------------------------3--3--3-3-3-3--3-3--3-3-3-3--------  |
G#|-------1-0------------1-0-----3--3--3-3-3-3--3-3--3-3-3-3--------  |
C#|0--3-0-----5-0--0-3-0-----5-0-3--3--3-3-3-3--3-3--3-3-3-3--------  |
                                                                      |
D#|-----------------------------------------------------------------  |
A#|-----------------------------------------------------------------  |
F#|-----------------------------------------------------------------  |
C#|15-15-14-14-10-10-10-10-15-15-14-14-10-10-10-10-15-15-14-14-10-10  | X2
G#|-----------------------------------------------------------------  |
C#|13-13-12-12-8--8--8--8--13-13-12-12-8--8--8--8--13-13-12-12-8--8-  |
                                                                      |
D#|-----------------------------------------------------------------  |
A#|-----------------------------------------------------------------  |
F#|-----------------------------------------------------------------  |
C#|12-12-12-12-12-12-12-12------------------------------------------  |
G#|-----------------------------------------------------------------  |
C#|10-10-10-10-10-10-10-10------------------------------------------  /


Bridge (Ending breakdown is the same without the 3-0-8/)
D#|------------------------------------------|
A#|------------------------------------------|
F#|------------------------------------------|
C#|0--0----0-0-0-0-0-0-0--0---3-0-8/---------|
G#|0--0----0-0-0-0-0-0-0--0---3-0-8/---------|
C#|0--0----0-0-0-0-0-0-0--0---3-0-8/---------|
PM.+  +    + + + + + + +  +

I hope this was helpful! ENJOY! :]
            
Submit corrections

comments powered by Disqus
↑ Back to top | A Day To Remember Tabs for Heartless. Lyrics for acoustic guitar and electric guitar. Tablatures and chords are parodies/interpretations of the original songs. You may use it for private study, scholarship, research or language learning purposes only