>
 >
Heartless

Heartless Guitar Tabs

A Day To Remember - Heartless chords, tabs, tablatures, lyrics

Guitar lessons | Add/correct | Request | Top 50 tabs Artists:  A B C D E F G H I J K L M N O P Q R S T U V W X Y Z 0-9

Heartless Guitar Tabs – A Day To Remember

CD, Sheet music, Poster

Do you like Heartless? Share with your friends now
TabsTabs v2Tabs v3

HEARTLESS
As recorded by A Day To Remember
(From the 2008 Album FOR THOSE WHO HAVE HEART (REISSUE))

	

Words and Music by A Day To Remember

Gtr I (C G C F A D) - 'Left Channel'
Gtr II (C G C F A D) - 'Right Channel'
Gtr III (C G C F A D) - 'Overdub'

 "For once.."   Verse
  Pop Mosh Q=200
  N.C.            D5F5E5D5F5E5D5F5  E5D5F5E5BbA5G5F5
 5/4             4/4
  Gtrs I, II
                  PM---------------------------------
  W        Q      E E E E E E E E   E E E E E E E E
|-------------||------------------|-----------------|
|-------------||o-----------------|-----------------|
|-------------||------------------|-----------------|
|-------------||------------------|-----------------|
|-------------||o-0-3-2-0-3-2-0-3-|-2-0-3-2-8-7-5-3-|
|-------------||--0-3-2-0-3-2-0-3-|-2-0-3-2-8-7-5-3-|


  D5F5E5D5F5E5D5F5  E5D5F5E5N.C.
 -------------------------|     ~
  E E E E E E E E   E E E E E E Q    4x
|-----------------|------------------||
|-----------------|-----------------o||
|-----------------|------------------||
|-----------------|------------------||
|-0-3-2-0-3-2-0-3-|-2-0-3-2---------o||
|-0-3-2-0-3-2-0-3-|-2-0-3-2-8-7-3----||


 "Let go. Let go."
  Slower Q=135
  D5
  PM---------------------|           PM---------------------|      PM
  E E Q.   S E S S S   E E H.        E E Q.   S E S S S   E E H    E E
|--------------------|-------------|--------------------|--------------||
|--------------------|-------------|--------------------|--------------||
|--------------------|-------------|--------------------|--------------||
|--------------------|-------------|--------------------|--------------||
|-0-0------0-0-0-0-0-|-0-0---------|-0-0------0-0-0-0-0-|-0-0------0---||
|-0-0------0-0-0-0-0-|-0-0---------|-0-0------0-0-0-0-0-|-0-0------0---||


 Chorus
  Original Tempo Q=200
  N.C.                              F5                                      Bb5
  Gtr I
  E E E E E E E E   +E  E E E E E E E   +E  E E E E E E E   +E  E E E E E E  E
|-----------------|-------------------|-------------------|--------------------|
|-----------------|-------------------|-------------------|--------------------|
|-----------------|-------------------|-------------------|--------------------|
|-----------------|-----------------3-|-(3)-3-3-3-3-3-3-3-|-(3)-3-3-3-3-3-3--8-|
|-----------------|-----------------3-|-(3)-3-3-3-3-3-3-3-|-(3)-3-3-3-3-3-3--8-|
|-0-0-3-0-8-7-5-0-|-(0)-0-3-0-8-7-5-3-|-(3)-3-3-3-3-3-3-3-|-(3)-3-3-3-3-3-3--8-|
|
| Gtr II
| E E E E E E E E   +E  E E E E E E E   +E  E E E E E E E   +E  E E E E E E  E
|-----------------|-------------------|-------------------|--------------------|
|-----------------|-------------------|-------------------|--------------------|
|-----------------|-------------------|-------------------|-----------------15-|
|-----------------|-----------------3-|-(3)-3-3-3-3-3-3-3-|-(3)-3-3-3-3-3-3--x-|
|-----------------|-----------------3-|-(3)-3-3-3-3-3-3-3-|-(3)-3-3-3-3-3-3-13-|
|-0-0-3-0-8-7-5-0-|-(0)-0-3-0-8-7-5-3-|-(3)-3-3-3-3-3-3-3-|-(3)-3-3-3-3-3-3----|


                                                   Csus2
  +E   E  E  E  E  E  E  E   +E   E  E  E  E  E  E  E
|--------------------------|--------------------------|
|--------------------------|--------------------------|
|--------------------------|--------------------------|
|-(8)--8--8--8--8--8--8--8-|-(8)--8--8--8--8--8--8-12-|
|-(8)--8--8--8--8--8--8--8-|-(8)--8--8--8--8--8--8-10-|
|-(8)--8--8--8--8--8--8--8-|-(8)--8--8--8--8--8--8-10-|
|
|  E   E  E  E  E  E  E  E    E   E  E  E  E  E  E  E
|--------------------------|--------------------------|
|--------------------------|--------------------------|
|-15--15-14-14-14-10-10-10-|-10--15-15-14-14-10-10-10-|
|--x---x--x--x--x--x--x--x-|--x---x--x--x--x--x--x--x-|
|-13--13-12-12-12--8--8--8-|--8--13-13-12-12--8--8--8-|
|--------------------------|--------------------------|


                                                   N.C.
   +E   E  E  E  E  E  E  E    E  E  E  E  E  E  E E
|---------------------------|------------------------|
|---------------------------|------------------------|
|---------------------------|------------------------|
|-(12)-12-12-12-12-12-12-12-|-12-12-12-12-12-12-12---|
|-(10)-10-10-10-10-10-10-10-|-10-10-10-10-10-10-10---|
|-(10)-10-10-10-10-10-10-10-|-10-10-10-10-10-10-10-0-|
|
|  +E   E  E  E  E  E  E  E    E  E  E  E  E  E  E E
|---------------------------|----13-13-13-13-13-13---|
|---------------------------|-----x--x--x--x--x--x---|
|-(10)-10-10-10-10-10-10-10-|-10-10-10-10-10-10-10---|
|--(x)--x--x--x--x--x--x--x-|--x---------------------|
|--(8)--8--8--8--8--8--8--8-|--8---------------------|
|---------------------------|----------------------0-|


                                      F5
  +E  E E E E E E E   +E  E E E E E E E
|-------------------|-------------------|
|-------------------|-------------------|
|-------------------|-------------------|
|-------------------|-----------------3-|
|-------------------|-----------------3-|
|-(0)-0-3-0-8-7-5-0-|-(0)-0-3-0-8-7-5-3-|
|
| +E  E E E E E E E   +E  E E E E E E E
|-------------------|-------------------|
|-------------------|-------------------|
|-------------------|-------------------|
|-------------------|-----------------3-|
|-------------------|-----------------3-|
|-(0)-0-3-0-8-7-5-0-|-(0)-0-3-0-8-7-5-3-|


                                      Bb5
  +E  E E E E E E E   +E  E E E E E E  E
|-------------------|--------------------|
|-------------------|--------------------|
|-------------------|--------------------|
|-(3)-3-3-3-3-3-3-3-|-(3)-3-3-3-3-3-3--8-|
|-(3)-3-3-3-3-3-3-3-|-(3)-3-3-3-3-3-3--8-|
|-(3)-3-3-3-3-3-3-3-|-(3)-3-3-3-3-3-3--8-|
|
| +E  E E E E E E E   +E  E E E E E E  E
|-------------------|--------------------|
|-------------------|--------------------|
|-------------------|-----------------15-|
|-(3)-3-3-3-3-3-3-3-|-(3)-3-3-3-3-3-3--x-|
|-(3)-3-3-3-3-3-3-3-|-(3)-3-3-3-3-3-3-13-|
|-(3)-3-3-3-3-3-3-3-|-(3)-3-3-3-3-3-3----|


                                                   Csus2
  +E   E  E  E  E  E  E  E   +E   E  E  E  E  E  E  E
|--------------------------|--------------------------|
|--------------------------|--------------------------|
|--------------------------|--------------------------|
|-(8)--8--8--8--8--8--8--8-|-(8)--8--8--8--8--8--8-12-|
|-(8)--8--8--8--8--8--8--8-|-(8)--8--8--8--8--8--8-10-|
|-(8)--8--8--8--8--8--8--8-|-(8)--8--8--8--8--8--8-10-|
|
|  E   E  E  E  E  E  E  E    E   E  E  E  E  E  E  E
|--------------------------|--------------------------|
|--------------------------|--------------------------|
|-15--15-14-14-14-10-10-10-|-10--15-15-14-14-10-10-15-|
|--x---x--x--x--x--x--x--x-|--x---x--x--x--x--x--x--x-|
|-13--13-12-12-12--8--8--8-|--8--13-13-12-12--8--8-13-|
|--------------------------|--------------------------|


   +E   E  E  E  E  E  E  E    E  E  E  E  E  E  E  E
|---------------------------|-------------------------||
|---------------------------|-------------------------||
|---------------------------|-------------------------||
|-(12)-12-12-12-12-12-12-12-|-12-12-12-12-12-12-12-12-||
|-(10)-10-10-10-10-10-10-10-|-10-10-10-10-10-10-10-10-||
|-(10)-10-10-10-10-10-10-10-|-10-10-10-10-10-10-10-10-||
|
|   E   E  E  E  E  E  E  E    E  E  E  E  E  E  E  E
|---------------------------|-------------------------||
|---------------------------|-------------------------||
|--15--15-14-14-14-10-10-10-|-10-15-15-14-14-10-10-10-||
|---x---x--x--x--x--x--x--x-|--x--x--x--x--x--x--x--x-||
|--13--13-12-12-12--8--8--8-|--8-13-13-12-12--8--8--8-||
|---------------------------|-------------------------||


   Verse
    D5F5E5D5F5E5D5F5  E5D5F5E5BbA5G5F5  D5F5E5D5F5E5D5F5  E5D5F5E5N.C.
    Gtrs I, II
    PM----------------------------------------------------------|     ~
    E E E E E E E E   E E E E E E E E   E E E E E E E E   E E E E E E Q    3x
||------------------|-----------------|-----------------|------------------||
||o-----------------|-----------------|-----------------|-----------------o||
||------------------|-----------------|-----------------|------------------||
||------------------|-----------------|-----------------|------------------||
||o-0-3-2-0-3-2-0-3-|-2-0-3-2-8-7-5-3-|-0-3-2-0-3-2-0-3-|-2-0-3-2---------o||
||--0-3-2-0-3-2-0-3-|-2-0-3-2-8-7-5-3-|-0-3-2-0-3-2-0-3-|-2-0-3-2-8-7-3----||


  D5F5E5D5F5E5D5F5  E5D5F5E5BbA5G5F5  D5F5E5D5F5E5D5F5
  PM------------------------------------------------|
  E E E E E E E E   E E E E E E E E   E E E E E E E E
|-----------------|-----------------|-----------------|
|-----------------|-----------------|-----------------|
|-----------------|-----------------|-----------------|
|-----------------|-----------------|-----------------|
|-0-3-2-0-3-2-0-3-|-2-0-3-2-8-7-5-3-|-0-3-2-0-3-2-0-3-|
|-0-3-2-0-3-2-0-3-|-2-0-3-2-8-7-5-3-|-0-3-2-0-3-2-0-3-|


  N.C.
          ~~~~~~~~~~~~~~~~~~~~~~~~~~~~~~~~~~~~~~~~~~~~~~~~~~~~~~~~~~~
   Q  Q   S      +S      +S      +S      +S      +S      +S      +S
|--------------------------------------------------------------------||
|--------------------------------------------------------------------||
|--------------------------------------------------------------------||
|--------------------------------------------------------------------||
|--------[5]b5.5r(5)b5.5r(5)b5.5r(5)b5.5r(5)b5.5r(5)b5.5r(5)b5.5r(5)-||
|-/8--3--------------------------------------------------------------||


 Breakdown
  Slower Q=135
  D5                                                            N.C.
  PM--------------|                 PM--------------|
  S S S E S S S E E Q    W          S S S E S S S E E Q    H    Q  +Q   a
|----------------------|----------|----------------------|------------------|
|----------------------|----------|----------------------|------------------|
|----------------------|----------|----------------------|------------------|
|----------------------|----------|----------------------|------------------|
|-0-0-0-0-0-0-0-0-0----|----------|-0-0-0-0-0-0-0-0-0----|------------------|
|-0-0-0-0-0-0-0-0-0----|----------|-0-0-0-0-0-0-0-0-0----|------7--(7)s=0---|


  D5
  PM--------------|
  S S S E S S S E E Q    W
|----------------------|----------|
|----------------------|----------|
|----------------------|----------|
|----------------------|----------|
|-0-0-0-0-0-0-0-0-0----|----------|
|-0-0-0-0-0-0-0-0-0----|----------|


  PM--------------|           PM------------|
  S S S E S S S E E Q    H    S S S S S S S S
|----------------------|------------------------||
|----------------------|------------------------||
|----------------------|------------------------||
|----------------------|------------------------||
|-0-0-0-0-0-0-0-0-0----|------0-0-0-0-0-0-0-0---||
|-0-0-0-0-0-0-0-0-0----|------0-0-0-0-0-0-0-0---||


 Chorus
  Original Tempo Q=200
  N.C.                              F5                                      Bb5
  Gtr I
  E E E E E E E E   +E  E E E E E E E   +E  E E E E E E E   +E  E E E E E E  E
|-----------------|-------------------|-------------------|--------------------|
|-----------------|-------------------|-------------------|--------------------|
|-----------------|-------------------|-------------------|--------------------|
|-----------------|-----------------3-|-(3)-3-3-3-3-3-3-3-|-(3)-3-3-3-3-3-3--8-|
|-----------------|-----------------3-|-(3)-3-3-3-3-3-3-3-|-(3)-3-3-3-3-3-3--8-|
|-0-0-3-0-8-7-5-0-|-(0)-0-3-0-8-7-5-3-|-(3)-3-3-3-3-3-3-3-|-(3)-3-3-3-3-3-3--8-|
|
| Gtr II
| E E E E E E E E   +E  E E E E E E E   +E  E E E E E E E   +E  E E E E E E  E
|-----------------|-------------------|-------------------|--------------------|
|-----------------|-------------------|-------------------|--------------------|
|-----------------|-------------------|-------------------|-----------------15-|
|-----------------|-----------------3-|-(3)-3-3-3-3-3-3-3-|-(3)-3-3-3-3-3-3--x-|
|-----------------|-----------------3-|-(3)-3-3-3-3-3-3-3-|-(3)-3-3-3-3-3-3-13-|
|-0-0-3-0-8-7-5-0-|-(0)-0-3-0-8-7-5-3-|-(3)-3-3-3-3-3-3-3-|-(3)-3-3-3-3-3-3----|


                                                   Csus2
  +E   E  E  E  E  E  E  E   +E   E  E  E  E  E  E  E
|--------------------------|--------------------------|
|--------------------------|--------------------------|
|--------------------------|--------------------------|
|-(8)--8--8--8--8--8--8--8-|-(8)--8--8--8--8--8--8-12-|
|-(8)--8--8--8--8--8--8--8-|-(8)--8--8--8--8--8--8-10-|
|-(8)--8--8--8--8--8--8--8-|-(8)--8--8--8--8--8--8-10-|
|
|  E   E  E  E  E  E  E  E    E   E  E  E  E  E  E  E
|--------------------------|--------------------------|
|--------------------------|--------------------------|
|-15--15-14-14-14-10-10-10-|-10--15-15-14-14-10-10-10-|
|--x---x--x--x--x--x--x--x-|--x---x--x--x--x--x--x--x-|
|-13--13-12-12-12--8--8--8-|--8--13-13-12-12--8--8--8-|
|--------------------------|--------------------------|


                                                   N.C.
   +E   E  E  E  E  E  E  E    E  E  E  E  E  E  E E
|---------------------------|------------------------|
|---------------------------|------------------------|
|---------------------------|------------------------|
|-(12)-12-12-12-12-12-12-12-|-12-12-12-12-12-12-12---|
|-(10)-10-10-10-10-10-10-10-|-10-10-10-10-10-10-10---|
|-(10)-10-10-10-10-10-10-10-|-10-10-10-10-10-10-10-0-|
|
|  +E   E  E  E  E  E  E  E    E  E  E  E  E  E  E E
|---------------------------|----13-13-13-13-13-13---|
|---------------------------|-----x--x--x--x--x--x---|
|-(10)-10-10-10-10-10-10-10-|-10-10-10-10-10-10-10---|
|--(x)--x--x--x--x--x--x--x-|--x---------------------|
|--(8)--8--8--8--8--8--8--8-|--8---------------------|
|---------------------------|----------------------0-|


                                      F5
  +E  E E E E E E E   +E  E E E E E E E
|-------------------|-------------------|
|-------------------|-------------------|
|-------------------|-------------------|
|-------------------|-----------------3-|
|-------------------|-----------------3-|
|-(0)-0-3-0-8-7-5-0-|-(0)-0-3-0-8-7-5-3-|
|
| +E  E E E E E E E   +E  E E E E E E E
|-------------------|-------------------|
|-------------------|-------------------|
|-------------------|-------------------|
|-------------------|-----------------3-|
|-------------------|-----------------3-|
|-(0)-0-3-0-8-7-5-0-|-(0)-0-3-0-8-7-5-3-|


                                      Bb5
  +E  E E E E E E E   +E  E E E E E E  E
|-------------------|--------------------|
|-------------------|--------------------|
|-------------------|--------------------|
|-(3)-3-3-3-3-3-3-3-|-(3)-3-3-3-3-3-3--8-|
|-(3)-3-3-3-3-3-3-3-|-(3)-3-3-3-3-3-3--8-|
|-(3)-3-3-3-3-3-3-3-|-(3)-3-3-3-3-3-3--8-|
|
| +E  E E E E E E E   +E  E E E E E E  E
|-------------------|--------------------|
|-------------------|--------------------|
|-------------------|-----------------15-|
|-(3)-3-3-3-3-3-3-3-|-(3)-3-3-3-3-3-3--x-|
|-(3)-3-3-3-3-3-3-3-|-(3)-3-3-3-3-3-3-13-|
|-(3)-3-3-3-3-3-3-3-|-(3)-3-3-3-3-3-3----|


                                                   Csus2
  +E   E  E  E  E  E  E  E   +E   E  E  E  E  E  E  E
|--------------------------|--------------------------|
|--------------------------|--------------------------|
|--------------------------|--------------------------|
|-(8)--8--8--8--8--8--8--8-|-(8)--8--8--8--8--8--8-12-|
|-(8)--8--8--8--8--8--8--8-|-(8)--8--8--8--8--8--8-10-|
|-(8)--8--8--8--8--8--8--8-|-(8)--8--8--8--8--8--8-10-|
|
|  E   E  E  E  E  E  E  E    E   E  E  E  E  E  E  E
|--------------------------|--------------------------|
|--------------------------|--------------------------|
|-15--15-14-14-14-10-10-10-|-10--15-15-14-14-10-10-10-|
|--x---x--x--x--x--x--x--x-|--x---x--x--x--x--x--x--x-|
|-13--13-12-12-12--8--8--8-|--8--13-13-12-12--8--8--8-|
|--------------------------|--------------------------|


                                          H.=H
   +E   E  E  E  E  E  E  E    E  E  E  E  E  E  E  E
|---------------------------|-------------------------||
|---------------------------|-------------------------||
|---------------------------|-------------------------||
|-(12)-12-12-12-12-12-12-12-|-12-12-12-12-12-12-12-12-||
|-(10)-10-10-10-10-10-10-10-|-10-10-10-10-10-10-10-10-||
|-(10)-10-10-10-10-10-10-10-|-10-10-10-10-10-10-10-10-||
|
|   E   E  E  E  E  E  E  E    E  E  E  E  E  E  E  E
|---------------------------|-------------------------||
|---------------------------|-------------------------||
|--10--10-10-10-10-10-10-10-|-10-10-10-10-10-10-10-10-||
|---x---x--x--x--x--x--x--x-|--x--x--x--x--x--x--x--x-||
|---8---8--8--8--8--8--8--8-|--8--8--8--8--8--8--8--8-||
|---------------------------|-------------------------||


 "And I'll close my eyes.."
  Slower Q=125
  D5                   F5D5C5      D5                 F5D5C5
  Gtrs I, II
                   PM|   PM                         PM  PM
  W          +Q.   S S E E  Q  a   W          +Q.   E E E  Q  a
|----------|---------------------|----------|--------------------|
|----------|---------------------|----------|--------------------|
|----------|---------------------|----------|--------------------|
|-0--------|-(0)-------3---------|-0--------|-(0)-----3----------|
|-0--------|-(0)---0-0-3-0-10s=0-|-0--------|-(0)---0-3-0-10s=0--|
|-0--------|-(0)---0-0-3-0-10s=0-|-0--------|-(0)---0-3-0-10s=0--|


  D5                   F5D5C5      D5
                   PM|   PM
  W          +Q.   S S E E  Q  a   W
|----------|---------------------|----------|
|----------|---------------------|----------|
|----------|---------------------|----------|
|-0--------|-(0)-------3---------|-0--------|
|-0--------|-(0)---0-0-3-0-10s=0-|-0--------|
|-0--------|-(0)---0-0-3-0-10s=0-|-0--------|


          F5D5N.C.
        PM  PM ~~~~~~~~~~~~~~~~~~~~~~~~~~~
  +Q.   E E E  S      +S      +S      +S
|-----------------------------------------||
|-----------------------------------------||
|-----------------------------------------||
|-(0)-----3-------------------------------||
|-(0)---0-3-0-[5]b5.5r(5)b5.5r(5)b5.5r(5)-||
|-(0)---0-3-0-----------------------------||


 "But I guess I'll play.."
  D5                               F5D5C5
  PM-----------------------------|   PM
  E E +Q.   S S S S S S   E Q  S S E E  Q  a
|-----------------------|--------------------|
|-----------------------|--------------------|
|-----------------------|--------------------|
|-----------------------|----------3---------|
|-0-0-(0)---0-0-0-0-0-0-|-0-0--0-0-3-0-10s=0-|
|-0-0-(0)---0-0-0-0-0-0-|-0-0--0-0-3-0-10s=0-|


  D5                             F5D5C5
  PM---------------------------|   PM
  E E +Q.   S S S S S S   E Q  E E E  Q  a
|-----------------------|------------------|
|-----------------------|------------------|
|-----------------------|------------------|
|-----------------------|--------3---------|
|-0-0-(0)---0-0-0-0-0-0-|-0-0--0-3-0-10s=0-|
|-0-0-(0)---0-0-0-0-0-0-|-0-0--0-3-0-10s=0-|


  D5                             F5D5C5
  PM---------------------------|   PM
  E E +Q.   S S S S S S   E Q  E E E  Q  a
|-----------------------|------------------|
|-----------------------|------------------|
|-----------------------|------------------|
|-----------------------|--------3---------|
|-0-0-(0)---0-0-0-0-0-0-|-0-0--0-3-0-10s=0-|
|-0-0-(0)---0-0-0-0-0-0-|-0-0--0-3-0-10s=0-|


  D5                             F5D5N.C.
  PM---------------------------|   PM ~~~~~~~~~~~~~~~~~~~~~~~~~~~
  E E +Q.   S S S S S S   E Q  E E E  S      +S      +S      +S
|-----------------------|----------------------------------------||
|-----------------------|----------------------------------------||
|-----------------------|----------------------------------------||
|-----------------------|--------3-------------------------------||
|-0-0-(0)---0-0-0-0-0-0-|-0-0--0-3-0-[5]b5.5r(5)b5.5r(5)b5.5r(5)-||
|-0-0-(0)---0-0-0-0-0-0-|-0-0--0-3-0-----------------------------||


 "5..4..3..2..1.."
  Even Slower Q=110
  F5/E
  Gtr III
   <
   S   S   S   S   S   S   S   S   S   S   S   S   S   S   S   S
|-(8)-(8)-(8)-(8)-(8)-(8)-(8)-(8)-(8)-(8)-(8)-(8)-(8)-(8)-(8)-(8)-|
|--6---6---6---6---6---6---6---6---6---6---6---6---6---6---6---6--|
|--9---9---9---9---9---9---9---9---9---9---9---9---9---9---9---9--|
|-----------------------------------------------------------------|
|-----------------------------------------------------------------|
|-----------------------------------------------------------------|


   S   S   S   S   S   S   S   S   S   S   S   S   S   S   S   S
|-(8)-(8)-(8)-(8)-(8)-(8)-(8)-(8)-(8)-(8)-(8)-(8)-(8)-(8)-(8)-(8)-|
|--6---6---6---6---6---6---6---6---6---6---6---6---6---6---6---6--|
|--9---9---9---9---9---9---9---9---9---9---9---9---9---9---9---9--|
|-----------------------------------------------------------------|
|-----------------------------------------------------------------|
|-----------------------------------------------------------------|


   S   S   S   S   S   S   S   S   S   S   S   S   S   S   S   S
|-(8)-(8)-(8)-(8)-(8)-(8)-(8)-(8)-(8)-(8)-(8)-(8)-(8)-(8)-(8)-(8)-|
|--6---6---6---6---6---6---6---6---6---6---6---6---6---6---6---6--|
|--9---9---9---9---9---9---9---9---9---9---9---9---9---9---9---9--|
|-----------------------------------------------------------------|
|-----------------------------------------------------------------|
|-----------------------------------------------------------------|


                                   \7
   S   S   S   S   S   S   S   S   H
|-(8)-(8)-(8)-(8)-(8)-(8)-(8)-(8)-(8)----||
|--6---6---6---6---6---6---6---6---6-----||
|--9---9---9---9---9---9---9---9---9-----||
|----------------------------------------||
|----------------------------------------||
|----------------------------------------||


   Beatdown
    D5
    Gtr III
     S   S   S   S   S   S   S   S   S   S   S   S   S   S   S   S
||--(8)-(8)-(8)-(8)-(8)-(8)-(8)-(8)-(8)-(8)-(8)-(8)-(8)-(8)-(8)-(8)-|
||o--6---6---6---6---6---6---6---6---6---6---6---6---6---6---6---6--|
||---9---9---9---9---9---9---9---9---9---9---9---9---9---9---9---9--|
||------------------------------------------------------------------|
||o-----------------------------------------------------------------|
||------------------------------------------------------------------|
|
|   Gtrs I, II
|    PM--------------------------------------------------------------
|    E       Q.                     +E       S   S   S   S   S   S
||------------------------------------------------------------------|
||o-----------------------------------------------------------------|
||------------------------------------------------------------------|
||------------------------------------------------------------------|
||o--0-------0----------------------(0)------0---0---0---0---0---0--|
||---0-------0----------------------(0)------0---0---0---0---0---0--|


   S   S   S    S   S   S   S   S   S   S   S   S   S   S   S   S    3x
|-(8)-(8)-(8)--(8)-(8)-(8)-(8)-(8)-(8)-(8)-(8)-(8)-(8)-(8)-(8)-(8)---||
|--6---6---6----6---6---6---6---6---6---6---6---6---6---6---6---6---o||
|--9---9---9----9---9---9---9---9---9---9---9---9---9---9---9---9----||
|--------------------------------------------------------------------||
|-------------------------------------------------------------------o||
|--------------------------------------------------------------------||
|
|---------|
|  E       H..                                                       3x
|--------------------------------------------------------------------||
|-------------------------------------------------------------------o||
|--------------------------------------------------------------------||
|--------------------------------------------------------------------||
|--0-------0--------------------------------------------------------o||
|--0-------0---------------------------------------------------------||


   S   S   S   S   S   S   S   S   S   S   S   S   S   S   S   S
|-(8)-(8)-(8)-(8)-(8)-(8)-(8)-(8)-(8)-(8)-(8)-(8)-(8)-(8)-(8)-(8)-|
|--6---6---6---6---6---6---6---6---6---6---6---6---6---6---6---6--|
|--9---9---9---9---9---9---9---9---9---9---9---9---9---9---9---9--|
|-----------------------------------------------------------------|
|-----------------------------------------------------------------|
|-----------------------------------------------------------------|
|
|  PM--------------------------------------------------------------
|  E       Q.                     +E       S   S   S   S   S   S
|-----------------------------------------------------------------|
|-----------------------------------------------------------------|
|-----------------------------------------------------------------|
|-----------------------------------------------------------------|
|--0-------0----------------------(0)------0---0---0---0---0---0--|
|--0-------0----------------------(0)------0---0---0---0---0---0--|


                                   \7
   S   S   S   S   S   S   S   S   H
|-(8)-(8)-(8)-(8)-(8)-(8)-(8)-(8)-(8)----||
|--6---6---6---6---6---6---6---6--(6)----||
|--9---9---9---9---9---9---9---9--(9)----||
|----------------------------------------||
|----------------------------------------||
|----------------------------------------||
|
|---------|
|  E       Q.                      H
|----------------------------------------||
|----------------------------------------||
|----------------------------------------||
|----------------------------------------||
|--0-------0-----------------------------||
|--0-------0-----------------------------||


   Outro
    D5
    Gtrs I, II
    PM-----------------------------------------|
    E Q.   +E  S S S S S S   E H..        4x E E H.
||-------------------------|--------------||-----------*|
||o------------------------|-------------o||-----------*|
||-------------------------|--------------||-----------*|
||-------------------------|--------------||-----------*|
||o-0-0----(0)-0-0-0-0-0-0-|-0-0---------o||-0-0-------*|
||--0-0----(0)-0-0-0-0-0-0-|-0-0----------||-0-0-------*|



Duration Legend
---------------
W - whole; H - half; Q - quarter; E - 8th; S - 16th; T - 32nd; X - 64th; a - acciaccatura
+ - note tied to previous; . - note dotted; .. - note double dotted
Uncapitalized letters represent notes that are staccato (1/2 duration)
Irregular groupings are notated above the duration line
Duration letters will always appear directly above the note/fret number it represents the
duration for.  Duration letters with no fret number below them represent rests.  Multi-
bar rests are notated in the form Wxn, where n is the number of bars to rest for.  Low
melody durations appear below the staff

Tablature Legend
----------------
 h   - hammer-on
 p   - pull-off
 b   - bend
 pb  - pre-bend
 r   - bend release (if no number after the r, then release immediately)
 /\  - slide into or out of (from/to "nowhere")
 s   - legato slide
 S   - shift slide
 - natural harmonic
[n]  - artificial harmonic
n(n) - tapped harmonic
 ~   - vibrato
 tr  - trill
 T   - tap
 TP  - trem. picking
 PM  - palm muting
\n/  - tremolo bar dip; n = amount to dip
 \n  - tremolo bar down
 n/  - tremolo bar up
/n\  - tremolo bar inverted dip
 =   - hold bend; also acts as connecting device for hammers/pulls
 <> - volume swell (louder/softer)
 x   - on rhythm slash represents muted slash
 o   - on rhythm slash represents single note slash

Misc Legend
-----------
 |  - bar
||  - double bar
||o - repeat start
o|| - repeat end
*|  - double bar (ending)
 :  - bar (freetime)
 $  - Segno
 &  - Coda
Tempo markers -  = BPM(8/16=s8/s16), where s8 = swing 8ths, s16 = swing 16ths





Comments


Popular A Day To Remember tabs & chords
Im Made Of Wax Larry What Are You Made Of 2 Bass Tabs
Your Way With Words Is Through Silence Bass Tabs
Homesick 1 Chords
City Of Ocala Tabs
City Of Ocala 2 Tabs
Plot To Bomb The Panhandle Tabs
Plot To Bomb The Panhandle 2 Tabs
Since U Been Gone 2 Tabs
Sometimes Youre The Hammer Sometimes Youre The Nail Tabs
The Downfall Of Us All Ukulele


Song lyrics



↑ Back to top | Tablatures and chords are parodies/interpretations of the original songs. You may use it for private study, scholarship, research or language learning purposes only
© 2014 AZChords.com Contact us | Privacy policy | DMCA | Add/correct tabs | Request tabs | Top 50 tabs