» » »

A Day To Remember, A Shot In The Dark Tabs (ver.2)

Artists:  A B C D E F G H I J K L M N O P Q R S T U V W X Y Z # 

A Shot In The Dark Tabs (ver.2)

A Day To Remember Tabs
Rating:
5/5 (9 votes)
A Shot In The Dark lessons Tabs too difficult? Try these video lessons and learn fast
                Tuning: Dropped C

Key:
X = Dead Note
\x/ = Wammy Down
\ = Slide Down
P = Palm Mute
P---| = Palm mute 'til '|'
* = Pinch Harmonic

The chorus should be correct in this one.

Intro:
D|-----------------|------------------|-------------------|---------|
A|-----------------|------------------|-------------------|---------|
F|-----------------|------------------|-------------------|---------|
C|-----------------|-----------------7|-------------------|---------|
G|---7-8--10XX-----|----7-8----5-7-8--|---7-8--10XX-------|----7-8--|
C|0-0-0--8----3-2-0|0-0--0-8-08-------|0-0-0--8-----3-2-0-|0-0--0-88|

Intro. B:
D|------------------|-------------------|
A|------------------|-------------------|
F|------------------|-------------------|
C|------------------|------------------7| x4
G|---7-8--10XX------|----7-8-----5-7-8--|
C|0-0-0--8-----3-2-0|0-0--0-8-08--------|

Pre-Verse:
D|-----------------|
A|-----------------|
F|-----------------|
C|0----------------|
G|0----------0-----|
C|0----5-3-2-0--\0/|
       P----

Verse:
D|-----------------------------------------------------------------------|
A|-----------------------------------------------------------------------|
F|-----------------------------------------------------------------------|
C|-----------------------------------------------------------------------| X2
G|0-0-000-000-000-000-000-78-8\000-000-000-3333-7777---------------------|
C|0-0-000-000-000-000-000------000-000-000-3333-7777---------------------|
      P------------------|      P----------------------------------------|

D|--------------------------------------|--------------------------------|
A|--------------------------------------|--------------------------------|
F|--------------------------------------|--------------------------------|
C|--------------------------------------|--------------------------------|
G|0-000000000000-78-8\00000000-3333-7777|0-000000000000-78-8\0000-33-77--|
C|0-000000000000------00000000-3333-7777|0-000000000000------0000-33-77--|
    P-----------      P-----------------   P-----------      P-----------|

Chorus:[Strumming Not Shown]
D|----------------|
A|----------------|
F|---------------5|
C|8--0--3--8--0--5| x2
G|8--0--3--8--0--3|
C|8--0--3--8--0---|

Pre-Verse 2:
D|------------------|-------------------|------------------|------------|
A|------------------|-------------------|------------------|------------|
F|------------------|-------------------|------------------|------------|
C|------------------|------------------7|------------------|------------|
G|---7-8--10XX------|----7-8-----5-7-8--|---7-8--10XX------|----7-8-10*b|
C|0-0-0--8-----3-2-0|0-0--0-8-08--------|0-0-0--8-----3-2-0|0-0--0-8----|

Verse:
D|---------------------------------------------------------------------------|
A|---------------------------------------------------------------------------|
F|---------------------------------------------------------------------------|
C|---------------------------------------------------------------------------| X2
G|0-0-000-000-000-000-000-78-8\000-000-000-3333-7777-------------------------|
C|0-0-000-000-000-000-000------000-000-000-3333-7777-------------------------|
      P------------------      P---------------------------------------------|

D|--------------------------------------|------------------------------------|
A|--------------------------------------|------------------------------------|
F|--------------------------------------|------------------------------------|
C|--------------------------------------|------------------------------------|
G|0-000000000000-78-8\00000000-3333-7777|0-000000000000-78-8\0000-3333-7777--|
C|0-000000000000------00000000-3333-7777|0-000000000000------0000-3333-7777--|
    P-----------      P-----------------   P-----------      P---------------|
Interlude:
D|---------------|
A|---------------|
F|---------------|
C|0--------------|
G|0--------3/12\3|
C|0--------3/12\3|

D|-----------------------|
A|-----------------------|
F|-----------------------|
C|-----------------------| x4
G|0-0-00000-000000-------|
C|0-0-00000-000000-------|
  P----------------------|
D|-----------------------|
A|-----------------------|
F|-----------------------|
C|-----------------------| x3
G|0-0-00000-000000-------|
C|0-0-00000-000000-------|
  P----------------------|
D|-----------------------|
A|-----------------------|
F|-----------------------|
C|-----------------------|
G|0-0-00000-000000-------|
C|0-0-00000-000000-3035--|
  P----------------------|

Chorus:[Strumming Not Shown]
D|----------------|
A|----------------|
F|---------------5|
C|8--0--3--8--0--5| x8
G|8--0--3--8--0--3|
C|8--0--3--8--0---|

Outro:
D|-----------------|-----------------|
A|-----------------|-----------------|
F|-----------------|-----------------|
C|0----------------|-----0----------0|
G|0----------------|12\\-0----------0|
C|0----------------|12\\-0----------0|

D|------------------|------------------|------------------|----------------------|
A|------------------|------------------|------------------|----------------------|
F|------------------|------------------|------------------|----------------------|
C|------------------|------------------|------------------|----------------------|
G|000000000--00~00-0|000000000--0000000|000000000--00-00-0|000000000--0000001----|
C|000000000--00~00-0|000000000--0000000|000000000--00-00-0|000000000--0000001----|
 P-------------------------------------------------------------------------------|

D|-------------------|-------------------|-------------------|------------------|
A|-------------------|-------------------|-------------------|------------------|
F|-------------------|-------------------|-------------------|------------------|
C|-------------------|-------------------|-------------------|------------------|
G|000000000--00-00-0-|000000000--0000000-|000000000--00-00-0-|000000000--00-00-0|
C|000000000--00-00-0-|000000000--0000000-|000000000--00-00-0-|000000000--00-00-0|
  P-----------------------------------------------------------------------------|
            
Submit corrections

comments powered by Disqus
↑ Back to top | A Day To Remember Tabs for A Shot In The Dark. Lyrics for acoustic guitar and electric guitar. Tablatures and chords are parodies/interpretations of the original songs. You may use it for private study, scholarship, research or language learning purposes only