» » »

A Shot In The Dark Bass tabs (ver.1)

Artists:  A B C D E F G H I J K L M N O P Q R S T U V W X Y Z # 

A Shot In The Dark Bass tabs (ver.1)

A Day To Remember
Rating:
5/5 (1 vote)

Hard to play? Try these video lessons and learn fast.
                -------------------------------------------------------------------------------
			              A Day to Remember - A shot in the dark
-------------------------------------------------------------------------------


Tuning: Dropped C (C,G,C,F)


Intro
F|-------------------------------------------------|
C|-------------------------------------------------| X2
G|----7-8---10---------7-8-----5787----------------|
C|-00-----89---3-2--00-----985---------------------|

F|-------------------------------------------------|
C|-------------------------------------------------| X2
G|----10-12---10---------10-12-----5787------------|
C|-00-------89----3-2-00-------985-----------------|

Pre-Verse
F|-------------------|
C|-------------------|
G|-------------------|
C|-0~~~~~~-1110~-----|
Verse
F|-------------------------------------------------------|
C|-------------------------------------------------------| X3
G|-----------------------7-88----------------------------|
C|-0-000-000-000-000-000------0-000-000-000-333-777------|

F|---------------------------------------------------------|
C|---------------------------------------------------------|
G|-----------------------7-88------------------------------|
C|-0-000-000-000-000-000------0-000-000-000-33------77-----|

Chorus X2
F|------------------------------------------|
C|------------------------------------------|
G|------------------------------------------|
C|-8-8-8-8-8-8-8-8-0-0-0-0-10-10-10-10------|

F|------------------------------------------|
C|------------------------------------------|
G|------------------------------------------|
C|-8-8-8-8-8-8-8-8-0-0-0-0-2-2-5-5----------|

Verse
F|-------------------------------------------------------|
C|-------------------------------------------------------| X4
G|-----------------------7-88----------------------------|
C|-0-000-000-000-000-000------0-000-000-000-333-777------|

F|--------------|
C|--------------|
G|--------------|
C|-0~-----------|

breakdown
F|---------------------------|
C|---------------------------| X4
G|---------------------------|
C|-0-0-00000--0000000--------|

F|---------------------------|
C|---------------------------| X4
G|---------------------------|
C|-0~0~00000~-0000000~-------|

Chorus X4
F|------------------------------------------|
C|------------------------------------------|
G|------------------------------------------|
C|-8-8-8-8-8-8-8-8-0-0-0-0-10-10-10-10------|

F|------------------------------------------|
C|------------------------------------------|
G|------------------------------------------|
C|-8-8-8-8-8-8-8-8-0-0-0-0-2-2-5-5----------|

F|------------|
C|------------| X2
G|------------|
C|-0~---------|

Outro
F|------------------------|
C|------------------------| 
G|------------------------|
C|-000000000-00-00-0------|
                             ALL x2
F|------------------------|
C|------------------------| 
G|------------------------|
C|-000000000-00000000-----|

REST

F|--------------------------|
C|--------------------------| 
G|--------------------------|
C|-000000000~-00~-00~-0~----|
                             
F|--------------------------|
C|--------------------------| 
G|--------------------------|
C|-000000000~-00000000~-----|

F|--------------------------|
C|--------------------------| 
G|--------------------------|
C|-000000000~-00~-00~-0~----|
                             
F|--------------------------|
C|--------------------------| 
G|--------------------------|
C|-000000000~-00000000X-----|
            
Hard to play? Try these video lessons and learn fast. | Correct




comments powered by Disqus
↑ Back to top | Tablatures and chords are parodies/interpretations of the original songs. You may use it for private study, scholarship, research or language learning purposes only