» » »

Biglaan Tabs (ver.3)

Artists:  A B C D E F G H I J K L M N O P Q R S T U V W X Y Z # 

Biglaan Tabs (ver.3)

6 Cycle Mind
Rating:
0/5 (0 votes)

Hard to play? Try these video lessons and learn fast.
                (Solo)
Nakita ko ito sa concert nila sa iloilo...
Pero di naman ko sure kung ganito talaga 
kase umuulan nung tumugtog sila eh(mga 95% siguro)...

EADGBe
*Chorus part*
e|--------------------------------------------|
B|-(7h8-8-7-8-7-8-7)2X------------------------|
G|---------------------8s9-7---8s11-8---------|
D|---------------------------7--------7-7s8---|
A|--------------------------------------------|
E|--------------------------------------------|

*Solo part*
e|--------------------------------------------------------|
B|-------------------12-13-13s15-15-12-13-12--------------|
G|-10s12-12-12s14-14-------------------------12------12---|
D|----------------------------------------------12h14-----|(*konting pause*)
A|--------------------------------------------------------|
E|--------------------------------------------------------|

e|-----------------------------------------------------------|
B|-----------------------------------------------------------|
G|----------12---------12---------12-14po12--12-12h14-14s16--|
D|-14-12h14---14-12h14---14-12h14----------14----------------|
A|-----------------------------------------------------------|
E|-----------------------------------------------------------|

e|-------15-15h17-15-------------------------------------------|
B|-15h17-------------17-15-17-15^^-----------------------------|
G|----------------------------------14-12---12-12b14r12--12----|
D|----------------------------------------14-----------14--14--|
A|-------------------------------------------------------------|
E|-------------------------------------------------------------|

*Last Chorus part*
e|-12h13-12h13-12h13-12h13-12h13.......--| (*repeat lang....*)
B|---------------------------------------|
G|---------------------------------------|
D|---------------------------------------|
A|---------------------------------------|
E|---------------------------------------|

q=)
            
Hard to play? Try these video lessons and learn fast. | Correct




comments powered by Disqus
↑ Back to top | Tablatures and chords are parodies/interpretations of the original songs. You may use it for private study, scholarship, research or language learning purposes only