» » »

Biglaan Bass tabs (ver.1)

Artists:  A B C D E F G H I J K L M N O P Q R S T U V W X Y Z # 

Biglaan Bass tabs (ver.1)

6 Cycle Mind
Rating:
4/5 (2 votes)

Hard to play? Try these video lessons and learn fast.
                
mali pla ung unang tab q!! amp!! senxa na!!..

*papasok lng po ung bass s refrain s umpisa... s 2nd may verse na...
refrain: (kay bilis...)
G|--------------------------------------------------------|
D|-------5/7-5-------3/5-3--------5/7-5--------3/5-3------|
A|--0-5---------0-3----------0-5----------0-3-------------|
E|--------------------------------------------------------|

------------------------------------|
------5/7-5-------------------------|
-0-5---------0-33333333-------------|
------------------------------------|

chorus: (di ko man lamang nalaman...)
G|---------------------------------------------------------|
D|------------5------------------4-------------------------|
A|------3/5-5---5----------3/5-5---5-----------------------| (2x)
E|---3----------------3-2----------------3-3/88888888------|
     ^
di ako sanay sa biglaan...)
G|-------------------------------777777777---------------|
D|-------------------------------------------------------|
A|--------------------55555555---------------------------|
E|---5-----3-----5------------------------------12/------|
 (repeat chorus tab)
 |
Verse II:
(hindi ba natin...)
G|-----------------------------------55555555--|
D|---------------------------------------------|
A|---------------------------33333333----------|4x
E|-3-33-33--2-22-22-------3h5------------------|

refrain II:
(kay bilis) distorted kc kaya iba...
G-----------------------------------------------------------------------|
D-----------------------------------------------------------------------|
A-5-5-5-5----3-3-3-3----5-5-5-5----3-3-3-3----5-5-5-5----3-3-3----------|
E---------------------------------------------------------------12/-----|
							*repeat chorus
ulitin nio n lng...

(salamat sa bandang KURIKACHOO, s mga tropets nmn.. lalo n ang tropang T-10...
 salamat din s iba pang sumusuporta sa amin...)
            
Hard to play? Try these video lessons and learn fast. | Correct




comments powered by Disqus
↑ Back to top | Tablatures and chords are parodies/interpretations of the original songs. You may use it for private study, scholarship, research or language learning purposes only