» » »

6 Cycle Mind, Dinamayan Chords (ver.1)

Artists:  A B C D E F G H I J K L M N O P Q R S T U V W X Y Z # 

Dinamayan Chords (ver.1)

6 Cycle Mind Tabs
Rating:
4/5 (7 votes)
Dinamayan lessons Tabs too difficult? Try these video lessons and learn fast
                 


or you can also add as tru friendster or txt 09214896664,,,that's all ASEEG!!!!
 

Intro:
           Bb      F/Bb    Eb    F/Bb   (2x)
      E|---6-9-----6-8-----5-6—----6-8------|
      B|---6-------6-------6-------6--------|
      G|---x-------x-------x-------x--------|
      D|---x-------x-------x-------x--------|
      A|---x-------x-------x-------x--------|
      E|---6-------6-------6-------6--------|

Verse:
         Bb        F/Bb    Eb      F/Bb
     Dinamayan mo ako sa aking pag-iisa
E|-------6-9—------6-8-----5-6—-------6-8-----|
B|-------6---------6-------6----------6-------|
G|-------x---------x-------x----------x-------
D|-------x---------x-------x----------x-------
A|-------x---------x-------x----------x-------
E|-------6---------6-------6----------6-------
          Bb            F/Bb       Eb      F/Bb
     Nakinig ka ng awit ko nang walang pagkasawa
E|--------6-9—----------6-8--------5-6—-------6-8----
B|--------6-------------6----------6----------6------
G|--------x-------------x----------x----------x------
D|--------x-------------x----------x----------x------
A|--------x-------------x----------x----------x------
E|--------6-------------6----------6----------6------
                Bb           F/Bb   
     Kung ang gabi ay lumalamig
E|--------------6-9—---------6-8-----
B|--------------6------------6-------
G|--------------x------------x-------
D|--------------x------------x-------
A|--------------x------------x-------
E|--------------6------------6-------
             Eb       F/Bb
     Taglay ko ang yakap mo
E|-----------5-6—--------6-8---------
B|-----------6-----------6-----------
G|-----------x-----------x-----------
D|-----------x-----------x-----------
E|-----------6-----------6-----------
              Bb           F/Bb
     Ang init ng iyong pagmamahal
E|--------------6-9—---------6-8-----
B|--------------6------------6-------
G|--------------x------------x-------
D|--------------x------------x-------
A|--------------x------------x-------
E|--------------6------------6-------
           Eb  F/Bb(hold)    
     Ay walang kasing-alab
E|-----------5-6—--------6-8---------
B|-----------6-----------6-----------
G|-----------x-----------x-----------
D|-----------x-----------x-----------
E|-----------6-----------6-----------

Interlude: Bb-F-Eb-F
           Bb-F-Eb-F
Verse:
         Bb        F          Eb            F
     At dahil sa iyo, napukaw ang damdamin ko
        Bb            F           Eb        F
     Natuto akong mangarap sa gitna ng kadiliman
          Bb             F         Eb            F
     Hinarap ko ang kahirapan, minahal ko ang buhay
                Bb         Gm
     Ang langit ay abot-kamay lamang
            Eb        F  Bb-F-Eb-F
     Kung ako’y nasa piling mo

Interlude: Bb-F-Eb-F
           Bb-F-Eb-F
Verse:
              Bb          F        Eb          F
     At sa pagsapit ng dilim, ikaw ang liwanag ko
      Bb             F           Eb     F
     Parang isang dasal na lagi kong inuusal
                Bb        F             Eb        F
     Ang tinig mong malambing, sa diwa koy nakatanim
             Bb           Gm            Eb        F  Bb-F-Eb-F       
     Kahit saan ka man naroroon, naririnig ko sa hangin

Interlude: Bb-F-Eb-F
           Bb-F-Eb-F
Verse:
             Bb        F      Eb        F
     At Dinamayan mo ako sa aking pag-iisa
          Bb             F         Eb        F
     Nakinig ka ng awit ko nang walang pagkasawa
                Bb        F            Eb         F
     Ang tinig mong malambing, sa diwa koy nakatanim
             Bb           Gm            Eb        F-Bb          
     Kahit saan ka man naroroon, naririnig ko sa hangin
 
             Bb           Gm            Eb        F-Bb          
     Kahit saan ka man naroroon, naririnig ko sa hangin
             Bb           Gm            Eb        F-Bb                    
     Kahit saan ka man naroroon, naririnig ko sa hangin
             Bb           Gm            Eb        F-Bb                    
     Kahit saan ka man naroroon, naririnig ko sa hangin
             Bb           Gm            Eb                 
     Kahit saan ka man naroroon, naririnig ko 
            F         Bb-Gm-F-Eb-F-Bb  Bb Gm-F-Eb-F
     Naririnig ko sa hangin

Outro: Bb-F-Eb-F
       
                    Ok that's all enjoy!
                 paki rate nalang tnx,,,
            

comments powered by Disqus
↑ Back to top | 6 Cycle Mind Chords for Dinamayan. Lyrics for acoustic guitar and electric guitar. Tablatures and chords are parodies/interpretations of the original songs. You may use it for private study, scholarship, research or language learning purposes only