» » »

6 Cycle Mind, Biglaan Tabs (ver.1)

Artists:  A B C D E F G H I J K L M N O P Q R S T U V W X Y Z # 

Biglaan Tabs (ver.1)

6 Cycle Mind Tabs
 Rating:
4/5 (22 votes)
Biglaan lessons Tabs too difficult? Try these video lessons and learn fast
1
                Album:Permission to shine

Tunning:Standard(EADGBE)
*=Volume swell
INTRO/VERSE
Strum chords
Gtr.1
|-3-----3-----3-----3----------------|
|-3-----3-----3-----3----------------|
|-0-----0-----0-----0----------------|
|-0-----0-----2-----2----------------|
|-2-----x-----2-----3----------------|
|-3-----2----------------------------|

Gtr.2 (verse 1)Play this with Gtr.1
|--------------------------------------|
|-*8*----*7*---------------------------|
|-------------*5*----------------------|
|------------------*5*-----------------|
|--------------------------------------|
|--------------------------------------|

"Kay Bilis"(Gtr.2)  "Nabigla lang"
|----------------| |----------------------|
|----------------| |----------------------|
|--------7-------| |-5-5-5-5-5-5-5-5------|
|-------7----5---| |-5-5-5-5-5-5-5-5------|
|-5-5--5----3----| |-3-3-3-3-3-3-3-3------|
|----------------| |----------------------|

CHORUS
Gtr.1
|-3-----3-----3-----3----------------|
|-3-----3-----3-----3----------------|
|-0-----0-----0-----0----------------|
|-0-----0-----2-----2----------------|
|-2-----x-----2-----3----------------|
|-3-----2----------------------------|

Gtr.2
|------------------------------------------------------------|
|-8-8--7h8p7-7h8p7--8-8-88-7h8p7--7h8p7----------------------|
|---------------------------------------7--5----7/9-7--------|
|--------------------------------------------5--------5--7---|
|------------------------------------------------------------|
|------------------------------------------------------------|

"Hindi ako sanay sa biglaan"           "Nawala"
  C         G           Am
|-----------3-----------0-----------| |--------------------|
|-1---------3-----------1-----------| |--------------------|
|-0---------0-----------2-----------| |-5-5-5-5-5-5-5------|
|-2---------0-----------2-----------| |-5-5-5-5-5-5-5------|
|-3---------2-----------0-----------| |-3-3-3-3-3-3-3------|
|-----------3-----------------------| |--------------------|
(After you do this part do the chorus again)


Verse 2
Gtr.1
|-3-----3-----3-----3----------------|
|-3-----3-----3-----3----------------|
|-0-----0-----0-----0----------------|
|-0-----0-----2-----2----------------|
|-2-----x-----2-----3----------------|
|-3-----2----------------------------|

Gtr.2 
|--------------------------------------|
|--------------------------------------|
|----------12-------12----12-----------|
|-10-10-10----10-10----10--------------|
|--------------------------------------|
|--------------------------------------|

|-------------------------------15-15-15-15-15-15-15-15-15-15-------|
|-15-15-15-15-15-15-15-15-15-15-------------------------------------|
|-------------------------------------------------------------------|
|-------------------------------------------------------------------|
|-------------------------------------------------------------------|
|-------------------------------------------------------------------|

"Kay bilis bat umalis"
  D           C
|-------------------------|
|-------------------------|
|-7-7-7-7---5-5-5-5-------|
|-7-7-7-7---5-5-5-5-------|
|-5-5-5-5---3-3-3-3-------|
|-------------------------|

(then the chorus part again)

Solo!
|------------------------------------------------------------------------------------------|
|-10-10--12-12-13-13/15-13-12--12-13-12----------------------------------------------------|
|----------------------------------------12----12--------12------12------------------12----|
|-------------------------------------------14---14-12h14---12h14----14p12-14p12-12h14-----|
|------------------------------------------------------------------------------------------|
|------------------------------------------------------------------------------------------|

|--------------------------------------17-15-15/-----|
|--------------------10h12-15-15-17-17---------------|
|-14^(15)-12------12---------------------------------|
|-----------14-12------------------------------------|
|----------------------------------------------------|
|----------------------------------------------------|

|--------------------------------------------------|
|-17-17--15--12------------------------------------|
|---------------14^---12/-------12-14-12---12------|
|------------------14-----12h14----------14--14----|
|--------------------------------------------------|
|--------------------------------------------------|

Hindi ako sanay sa biglaan"           "Nawala"
  C         G           Am
|-----------3-----------0-----------| |--------------------|
|-1---------3-----------1-----------| |--------------------|
|-0---------0-----------2-----------| |-5-5-5-5-5-5-5------|
|-2---------0-----------2-----------| |-5-5-5-5-5-5-5------|
|-3---------2-----------0-----------| |-3-3-3-3-3-3-3------|
|-----------3-----------------------| |--------------------|

Outro (Solo)
|-14h15-14h15-14h15-14h15-14h-14h15-14h15-14h15-14h15/-----|
|----------------------------------------------------------|
|----------------------------------------------------------|
|----------------------------------------------------------|
|----------------------------------------------------------|
|----------------------------------------------------------|

Sorry kung my kulng pa basta sundan nyo nlng
THNKS!!!
 \m/ PEACE OUT!!!
            
Submit corrections

comments powered by Disqus
↑ Back to top | 6 Cycle Mind Tabs for Biglaan. Lyrics for acoustic guitar and electric guitar. 1 Tablatures and chords are parodies/interpretations of the original songs. You may use it for private study, scholarship, research or language learning purposes only