>
 >
Biglaan 2

Biglaan 2 Guitar Tabs

6 Cycle Mind - Biglaan 2 chords, tabs, tablatures, lyrics

Guitar lessons | Add/correct | Request | Top 50 tabs Artists:  A B C D E F G H I J K L M N O P Q R S T U V W X Y Z 0-9

Biglaan 2 Guitar Tabs – 6 Cycle Mind

CD, Sheet music, Poster

Do you like Biglaan 2? Share with your friends now
Bass TabsBass Tabs v2Bass Tabs v3ChordsChords v2TabsTabs v2Tabs v3Tabs v4Ukulele
Biglaan
6 Cycle Mind
EADGBe

G	320033
Cadd9	x32033
D/F#	200032
Em	022000
D	057700 / x00323
C	x35500 / x32010
Bm7	x20032
Bm	x20030
==========
Intro: (Acoustic Strumming)
==========
G - D/F# - Cadd9 (2x)

Riff 1: (Played on third line of the first verse)

G		   D/F#			 Cadd9      	


e|-----------------|---------------------|------------------------------|
B|-3-----3-------3-|-3-----3-------3-----|-3-----3---------------------3|
G|---0-2-----0-2---|---0-2-----0-2-------|---0-2-----0-2-4-5-0-2-0-0-2--|
D|-----------------|---------------------|------------------------------|
A|-----------------|---------------------|------------------------------|
E|-----------------|---------------------|------------------------------|

============
Verse:
============
G	   D/F#		  Cadd9	
Nandito nakaukit pa rin sa puso ko
   G	       D/F#     Cadd9		
Ng sabihin mong wag na lang
G   	     D/F#           Cadd9 --------------------------> play Riff 1 on this line
Nandito nakatatak pa rin sa isip ko
       G            D/F#	 Cadd9
Kung paano mo kinalimutan ang lahat

================================================
Refrain: (plucking, don't use power chord)
================================================
D	  C--- D          C 
  Kay bilis      ba't umalis
D	  C
  Nakakamiss



Riff 2: Do this During Chorus and  2nd Intro

G		     D/F#			 Cadd9      	

					      |let ring------|	
e|-2/3-3--2-3-2-3-2--|-2/3-3--2-3-2-3-2-------|-------------------------------------|
B|-------------------|-------------------3----|-----------------/5------------------|
G|-------------------|------------------------|-0h2--0-------------------0h2-0--2---|
D|-------------------|------------------------|-------------------------------------|
A|-------------------|------------------------|-------------------------------------|
E|-------------------|------------------------|-------------------------------------|

============
Chorus: (Light Distortion)
============
	    G				Bm7    Cadd9	
Nang bigla lang, di ko man lamang nalaman na mawawala
	    G				Bm7	     Cadd9
Nang bigla lang, di ko man lamang naisip na idahan - dahan

============
Bridge:
============
Am                 Bm 
   Di ako sanay sa biglaan
Am		       D	
   Unti - unti na lang sanang nawala

========================
(Intro) Do Riff 2
========================

Riff 3:

G		     	      D/F#			   Cadd9      	
					    	
e|----------------------------|----------------------------|-10-(12x)-/-15-(12x)-|
B|-----------------8--------8-|-----------------8--------8-|---------------------|
G|-7-7-7-7-7-7-7-7---7-7-7----|-7-7-7-7-7-7-7-7---7-7-7----|---------------------|
D|----------------------------|----------------------------|---------------------|
A|----------------------------|----------------------------|---------------------|
E|----------------------------|----------------------------|---------------------|

================================================================================================
Verse 2: (Note: Play Riff 3 on all the lines of this verse, and also play Riff 1 on the 
		3rd line of this verse while Riff 3 is playing)
================================================================================================
	 G     D/F#	      Cadd9	 
Hindi ba natin kayang magkunwari
      G	      D/F#   Cadd9 		
At sabihing sige na lang
	 G	D/F#	 Cadd9
Hindi ba natin kayang dayain
	G	   D/F#       Cadd9	
Ang mga yakap sa tuwing lumalamig

================================================
Refrain: (Distorted sound, use power chord)
================================================
D	  C--- D          C 
  Kay bilis      ba't umalis
D	  C
  Nakakamiss

============
Chorus:
============
	    G				Bm7    Cadd9	
Nang bigla lang, di ko man lamang nalaman na mawawala
	    G				Bm7	     Cadd9
Nang bigla lang, di ko man lamang naisip na idahan - dahan
============
Bridge:
============
Am                 Bm 
   Di ako sanay sa biglaan
Am		       D	
   Unti - unti na lang sanang nawala

============
Guitar Solo (distortion)
============


					    	
e|--------------------------------------------------------------------------------------------------~
B|------------------12-13-13-13-/-15-15--12-13-12---------------------------------------------------~
G|-/12-12--12/14 14--------------------------------12----------12--------------12------------12-----~
D|-------------------------------------------------------12h14-------14--12h14-----14--12h14--------~
A|--------------------------------------------------------------------------------------------------~
E|--------------------------------------------------------------------------------------------------~
					       				  ~~~
e|-------------------------------------------------------------------------15-15/17---15------------------~
B|----------------------------------------------------------------15-15h17---------------17-15--17-15-----~
G|-------12------------12------------12------14b*--12----12-14/16-------------------------------------16--~
D|-12h14-----14--12h14-----14--12h14-----------------14--------------------------------------------------~
A|-------------------------------------------------------------------------------------------------------~
E|-------------------------------------------------------------------------------------------------------~

e|-------------------------------------------------------------------------------------------------------~
B|-------------------------------------------------------------------------------------------------------~
G|-14b*--12----12------------12-14-14b-12----12----------------------------------------------------------~
D|---------14-----14--12-14--------------14----14--------------------------------------------------------~
A|-------------------------------------------------------------------------------------------------------~
E|-------------------------------------------------------------------------------------------------------~

b* = pull 1/2 then thrill
/ = slide
b = bend
h = hammer on

============
Bridge:
============
Am                 Bm 
   Di ako sanay sa biglaan
Am		       D	
   Unti - unti na lang sanang nawala

============
Chorus:
============
	    G				Bm7    Cadd9	
Nang bigla lang, di ko man lamang nalaman na mawawala
	    G				Bm7	     Cadd9
Nang bigla lang, di ko man lamang naisip na idahan - dahan

============
Outro: (Note: yung chords dito saka mga riffs combination lang nung ibang riffs sa taas)
============

Nang bigla lang (3x)

CELINA MAE DELA CRUZ DE GUZMAN....this is for you...





Comments


Popular 6 Cycle Mind tabs & chords
Prinsesa Bass Tabs
Collide Chords
Home Chords
Kasalanan Chords
Sa Langit Chords
Upside Down Chords
Biglaan 4 Tabs
Dinamayan Tabs
Alagaan Mo Sya Ukulele
Noon At Ngayon Ukulele


Song lyrics



↑ Back to top | Tablatures and chords are parodies/interpretations of the original songs. You may use it for private study, scholarship, research or language learning purposes only
© 2014 AZChords.com Contact us | Privacy policy | DMCA | Add/correct tabs | Request tabs | Top 50 tabs