>
 >
Nothing On You 1

Nothing On You 1 Guitar Tabs

69 Eyes - Nothing On You 1 chords, tabs, tablatures, lyrics

Guitar lessons | Add/correct | Request | Top 50 tabs Artists:  A B C D E F G H I J K L M N O P Q R S T U V W X Y Z 0-9

Nothing On You 1 Guitar Tabs – 69 Eyes

CD, Sheet music, Poster

Do you like Nothing On You 1? Share with your friends now
Bass TabsTabsTabs v2
#------------------------------------------------------------------------------##

                                 NOTHING ON YOU
                           As recorded by The 69 Eyes
                          (From the 2004 Album DEVILS)

Words by Jyrki69

Music by Bazie
Arranged by The 69 Eyes

Gtr I (Db Ab Db Gb Bb Eb) - 'Timo Timo'
Gtr II (Db Ab Db Gb Bb Eb) - 'Bazie'

 Intro
  Q=126
  N.C.                                                C5    D5
 4/4
  Gtr I
  E E E Q.   Q    +E  E E E Q  Q    E E E Q.   Q    E E E E Q  Q
|---------------|-----------------|---------------|----------------|
|---------------|-----------------|---------------|----------------|
|-------5----7--|-(7)-------5--7--|-------5----7--|----------------|
|-----2------5--|-(5)-----2-------|-----2---------|---5-x-x-7--7---|
|-3p0-----------|-----3p0---------|-3p0-----------|---3-x-x-5--5---|
|---------------|-----------------|---------------|----------------|


  N.C.                                                C5    D5
  Gtrs I, II
  E E E Q.   Q    +E  E E E Q  Q    E E E Q.   Q    E E E E Q  Q
|---------------|-----------------|---------------|---------------|
|---------------|-----------------|---------------|---------------|
|-------5----7--|-(7)-------5--7--|-------5----7--|---------------|
|-----2------5--|-(5)-----2-------|-----2---------|---5-x-x-7--7--|
|-3p0-----------|-----3p0---------|-3p0-----------|---3-x-x-5--5--|
|---------------|-----------------|---------------|---------------|


  $
  N.C.                                                C5    D5
  E E E Q.   Q    +E  E E E Q  Q    E E E Q.   Q    E E E E Q  Q
|---------------|-----------------|---------------|---------------||
|---------------|-----------------|---------------|---------------||
|-------5----7--|-(7)-------5--7--|-------5----7--|---------------||
|-----2------5--|-(5)-----2-------|-----2---------|---5-x-x-7--7--||
|-3p0-----------|-----3p0---------|-3p0-----------|---3-x-x-5--5--||
|---------------|-----------------|---------------|---------------||


   Verse
    D5                                       G5        D5
    Gtr I
    E  a E E E E Q.      +W                  H..       E   +W                 3x
||---------------------|-------------------|-------------|--------------------||
||o--------------------|-------------------|-------------|-------------------o||
||-------5-------7-----|-(7)---------------|-4---------7-|-(7)----------------||
||--5s=7-----7---7-----|-(7)---------------|-5---------7-|-(7)----------------||
||o--------------------|-------------------|-------------|-------------------o||
||---------------------|-------------------|-------------|--------------------||
|
|   Gtr II
|   H..              E   +E  E E E E E E E   H..       E   +E  E E E E E E E  3x
||---------------------|-------------------|-------------|--------------------||
||o--------------------|-------------------|-------------|-------------------o||
||---------------------|-------------------|-7-----------|--------------------||
||--7----------------7-|-(7)-7---x-7---7---|-5---------7-|-(7)-7---x-7---7----||
||o-5----------------5-|-(5)-5---x-5---5---|-----------5-|-(5)-5---x-5---5---o||
||---------------------|-------------------|-------------|--------------------||


  D5                                     G5        D5
  E  a E E E E Q.      +W                H..       E   +E  E E E E E E E
|--------------------|-----------------|-------------|--------------------|
|--------------------|-----------------|-------------|--------------------|
|------5-------7-----|-(7)-------------|-4---------7-|-(7)-7---x-7---7----|
|-5s=7-----7---7-----|-(7)-------------|-5---------7-|-(7)-7---x-7---7----|
|--------------------|-----------------|-------------|--------------------|
|--------------------|-----------------|-------------|--------------------|
|
| H..              E   +E  E E E Q  Q    H..       E   +E  E E E E E E E
|--------------------|-----------------|-------------|--------------------|
|--------------------|-----------------|-------------|--------------------|
|--------------------|-----------------|-7-----------|--------------------|
|-7----------------7-|-(7)-7---x-7--7--|-5---------7-|-(7)-7---x-7---7----|
|-5----------------5-|-(5)-5---x-5--5--|-----------5-|-(5)-5---x-5---5----|
|--------------------|-----------------|-------------|--------------------|


  F5                            G5
   H..        E    +W            H..        E    +E   E  E  E  E  E  E  E
|---------------|-------------|---------------|---------------------------||
|---------------|-------------|---------------|---------------------------||
|-10---------10-|-(10)--------|-12---------12-|-(12)-12-12-12-12-12-12-12-||
|-10---------10-|-(10)--------|-12---------12-|-(12)-12-12-12-12-12-12-12-||
|--8----------8-|--(8)--------|-10---------10-|-(10)----------------------||
|---------------|-------------|---------------|---------------------------||
|
|  H..        E    +W            H..        E    +W
|---------------|-------------|---------------|---------------------------||
|---------------|-------------|---------------|---------------------------||
|-10---------10-|-(10)--------|-12---------12-|-(12)----------------------||
|-10---------10-|-(10)--------|-12---------12-|-(12)----------------------||
|--8----------8-|--(8)--------|-10---------10-|-(10)----------------------||
|---------------|-------------|---------------|---------------------------||


   Chorus
    $$
    A5                G5             F5               D5
    Q   E Q  E Q    E E E E Q  E E   Q  E Q  E Q    E E E E Q  E E
||----------------|----------------|--------------|-----------------|
||o---------------|----------------|--------------|-----------------|
||--9-----5----7--|----------------|--------------|---7---x-7--7----|
||--7-----5----5--|---5---x-5--5---|-3----3----3--|---7---x-7--7----|
||o---------------|---5---x-5--5---|-3----3----3--|-----------------|
||----------------|----------------|--------------|-----------------|
|
|   H.         Q    E E E E Q  E E   Q  E Q  E Q    E E E E Q  E E
||----------------|----------------|--------------|-----------------|
||o---------------|----------------|--------------|-----------------|
||----------------|----------------|--------------|-----------------|
||----------------|----------------|--------------|---7---x-7--7----|
||o-7----------7--|---5---x-5--5---|-3----3----3--|---5---x-5--5----|
||--7----------7--|---5---x-5--5---|-3----3----3--|-----------------|


                                                           D.S.
                                                           D.S.
  A5                G5             D5               F5    G5
  Q   E Q  E Q    E E E E Q  E E   Q  E Q  E Q    E E E E Q  E E
|---------------|----------------|--------------|-----------------||
|---------------|----------------|--------------|----------------o||
|-9-----5----7--|----------------|------5----7--|---------7--7----||
|-7-----5----5--|---5---x-5--5---|-7----5----7--|---3-x-x-5--5----||
|---------------|---5---x-5--5---|-5------------|---3-x-x--------o||
|---------------|----------------|--------------|-----------------||
|
| H.         Q    E E E E Q  E E   Q  E Q  E Q    E E E E Q  E E
|---------------|----------------|--------------|-----------------||
|---------------|----------------|--------------|----------------o||
|---------------|----------------|--------------|-----------------||
|---------------|----------------|-7----7----7--|-----------------||
|-7----------7--|---5---x-5--5---|-5----5----5--|---3-x-x-5--5---o||
|-7----------7--|---5---x-5--5---|--------------|---3-x-x-5--5----||


   Interlude
    N.C.                               A5
    Gtr I
                     >                             >
    E E E Q.   Q    +W           E E E E +H       +W
||----------------|------------|----------------|---------||
||o---------------|------------|----------------|--------o||
||--------5----7--|-(7)--------|----------------|---------||
||------2---------|------------|-----2-2-(2)----|-(2)-----||
||o-3p0-----------|------------|-3p0---0-(0)----|-(0)----o||
||----------------|------------|----------------|---------||


    N.C.                               A5
    Gtrs I, II
    E E E Q.   Q    +W           E E E E +H       +W
||----------------|------------|----------------|---------||
||o---------------|------------|----------------|--------o||
||--------5----7--|-(7)--------|----------------|---------||
||------2------5--|-(5)--------|-----2-2-(2)----|-(2)-----||
||o-3p0-----------|------------|-3p0---0-(0)----|-(0)----o||
||----------------|------------|----------------|---------||


 Guitar Solo
  G5                              D5
  Gtr I
   W                                W
|-------------------------------|---------------------------------|
|-------------------------------|---------------------------------|
|-------------------------------|---------------------------------|
|--5----------------------------|---7-----------------------------|
|--5----------------------------|---5-----------------------------|
|--5----------------------------|---------------------------------|
|
| Gtr II
|                         ~~~~~~~~~~~~~
|  E     +Q    Q.      E  E        +E   +Q    +Q    +E   E  E
|-------------------------------|---------------------------------|
|-10----(10)--10------13--------|---------------------------------|
|-12b14-(12)--12b14------12b14==|=(12)-(12)--(12)r=(12)\---19b21==|
|-------------------------------|---------------------------------|
|-------------------------------|---------------------------------|
|-------------------------------|---------------------------------|


  N.C.         A5
    E    E   E E  +H                +E   Q.           Q   Q
|--------------------------------|---------------------------------|
|--------------------------------|---------------------------------|
|--------------------------------|---------------------------------|
|------------2-2--(2)------------|--(2)--2------------2---2--------|
|---3p===0-----0--(0)------------|--(0)--0------------0---0--------|
|--------------------------------|---------------------------------|
|
|            ~~                                       ~~~
|  +E    E   Q    +E   +E   E  E    +E   S   S  E  E  Q.     +E
|--------------------------------|---------------------------------|
|-------20-----------------------|---------------------------------|
|-(19)-(19)-19---(19)r(19)-17-19-|-(19)-17--14-17-14-14-----(14)\--|
|--------------------------------|---------------------------------|
|--------------------------------|---------------------------------|
|--------------------------------|---------------------------------|


  G5                              D5
  H..                              E        +W
|----------------------------------------|---------------------|
|----------------------------------------|---------------------|
|----------------------------------------|---------------------|
|-5--------------------------------7-----|--(7)----------------|
|-5--------------------------------5-----|--(5)----------------|
|-5--------------------------------------|---------------------|
|
|                                                    |--3---|
| E    E     +E   E  E     +E   E  E        +H      +Q   Q  Q
|----------------17------------17-20b22==|=(20)----(20)r20-17--|
|-----20b22-(20)----20b22-(20)-----------|---------------------|
|----------------------------------------|---------------------|
|----------------------------------------|---------------------|
|----------------------------------------|---------------------|
|----------------------------------------|---------------------|


                                                       D.S.S. al Coda
  C5                                            D5
   W                                       E      E   E  E   Q         Q
|---------------------------------------|-----------------------------------||
|---------------------------------------|-----------------------------------||
|---------------------------------------|-----------------------------------||
|--5------------------------------------|--x------7---x--x---7---------7----||
|--3------------------------------------|--x------5---x--x---5---------5----||
|---------------------------------------|-----------------------------------||
|
|                                                        ~~~~~~~
|  |-----3------|    |-----3------|
|  Q       Q    Q    Q       Q    Q        E     +E   E  E  +E   +E   +Q
|---------------------------------------|---------------17-(17)-(17)-(17)\--||
|---------20---20-----------20---20-----|-----------------------------------||
|-19b21==(19)-(19)r-19b21==(19)-(19)r---|-19b21r(19)-17---------------------||
|---------------------------------------|-----------------------------------||
|---------------------------------------|-----------------------------------||
|---------------------------------------|-----------------------------------||


   Outro
    &
    N.C.
    E E E Q.   Q    +E  E E E Q  Q
||----------------|-----------------|
||o---------------|-----------------|
||--------5----7--|-(7)-------5--7--|
||------2------5--|-(5)-----2-------|
||o-3p0-----------|-----3p0---------|
||----------------|-----------------|
|
|   E E E Q.   Q    +E  E E E Q  Q
||----------------|-----------------|
||o---------------|-----------------|
||--------5----7--|-(7)-------5--7--|
||------2------5--|-(5)-----2-------|
||o-3p0-----------|-----3p0---------|
||----------------|-----------------|


                    C5    D5        A5
  E E E Q.   Q    E E E E Q  Q      q   H.
|---------------|----------------||-----------*|
|---------------|---------------o||-----------*|
|-------5----7--|----------------||-----------*|
|-----2---------|---5-x-x-7--7---||-7---------*|
|-3p0-----------|---3-x-x-5--5--o||-7---------*|
|---------------|----------------||-7---------*|
|
| E E E Q.   Q    E E E E Q  Q      Q   H.
|---------------|----------------||-----------*|
|---------------|---------------o||-----------*|
|-------5----7--|----------------||-----------*|
|-----2---------|---5-x-x-7--7---||-7\--------*|
|-3p0-----------|---3-x-x-5--5--o||-7\--------*|
|---------------|----------------||-7\--------*|


Duration Legend
---------------
W - whole; H - half; Q - quarter; E - 8th; S - 16th; T - 32nd; X - 64th; a - acciaccatura
+ - note tied to previous; . - note dotted; .. - note double dotted
Uncapitalized letters represent notes that are staccato (1/2 duration)
Irregular groupings are notated above the duration line
Duration letters will always appear directly above the note/fret number it represents the
duration for.  Duration letters with no fret number below them represent rests.  Multi-
bar rests are notated in the form Wxn, where n is the number of bars to rest for.  Low
melody durations appear below the staff

Tablature Legend
----------------
 h   - hammer-on
 p   - pull-off
 b   - bend
 pb  - pre-bend
 r   - bend release (if no number after the r, then release immediately)
 /\  - slide into or out of (from/to "nowhere")
 s   - legato slide
 S   - shift slide
  - natural harmonic
[n]  - artificial harmonic
n(n) - tapped harmonic
 ~   - vibrato
 tr  - trill
 T   - tap
 TP  - trem. picking
 PM  - palm muting
\n/  - tremolo bar dip; n = amount to dip
 \n  - tremolo bar down
 n/  - tremolo bar up
/n\  - tremolo bar inverted dip
 =   - hold bend; also acts as connecting device for hammers/pulls
 <>  - volume swell (louder/softer)
 x   - on rhythm slash represents muted slash
 o   - on rhythm slash represents single note slash

Misc Legend
-----------
 |  - bar
||  - double bar
||o - repeat start
o|| - repeat end
*|  - double bar (ending)
 :  - bar (freetime)
 $  - Segno
 &  - Coda
Tempo markers -  = BPM(8/16=s8/s16), where s8 = swing 8ths, s16 = swing 16ths





Comments


Popular 69 Eyes tabs & chords
Dance D'Amour Bass Tabs
Framed In Blood Bass Tabs
Gothic Girl 1 Bass Tabs
Still Waters Run Deep Bass Tabs
The Chair 3 Bass Tabs
Borderline Chords
From Dusk Till Dawn 1 Tabs
Nothing On You Tabs
Velvet Touch 1 Tabs
Chair Ukulele


Song lyrics



↑ Back to top | Tablatures and chords are parodies/interpretations of the original songs. You may use it for private study, scholarship, research or language learning purposes only
© 2014 AZChords.com Contact us | Privacy policy | DMCA | Add/correct tabs | Request tabs | Top 50 tabs