>
 >
Lost Boys

Lost Boys Guitar Tabs

69 Eyes - Lost Boys chords, tabs, tablatures, lyrics

Guitar lessons | Add/correct | Request | Top 50 tabs Artists:  A B C D E F G H I J K L M N O P Q R S T U V W X Y Z 0-9

Lost Boys Guitar Tabs – 69 Eyes

CD, Sheet music, Poster

Do you like Lost Boys? Share with your friends now
Bass TabsTabsTabs v2
INTRO 1

|-------------------------|-------------------------|
|-------------------------|-------------------------|
|-------------------------|-------------------------|
|-------------------------|-------------------------|
|-------4-----2--4-----4--|-------4-----2--4-----4--|
|-------------------------|-------------------------|


|-----------------------|-----------------------|------------------------|
|-----------------------|-----------------------|------------------------|
|-----------------------|-----------------------|------------------------|
|------7-------7--------|-----------------------|------------------------|
|--------------------4--|------9-------7b----L--|------4-----2--4-----4--|
|-----------------------|-----------------------|------------------------|


|-----------------------|-----------------------|------------------------|
|-----------------------|-----------------------|------------------------|
|-----------------------|-----------------------|--------------6br----L--|
|-----------------------|------7-------7--------|------------------------|
|-----4-----2--4-----4--|--------------------4--|------9-----------------|
|-----------------------|-----------------------|------------------------|


|-----------------------|-----------------------|------------------------|
|-----------------------|-----------------------|------------------------|
|-----------------------|-----------------------|------------------------|
|-----------------------|-----------------------|-------7-------7--------|
|-----4-----2--4-----4--|-----4-----2--4-----4--|---------------------4--|
|-----------------------|-----------------------|------------------------|


|------------------------|--------------|----------------|----------------|
|------------------------|--------------|----------------|--L-------------|
|------------------------|--6-----------|--L-------------|--L-------------|
|------------------------|--6-----------|--L-------------|--L-------------|
|-------9-------7b----L--|--4-----------|--L-------------|--L-------------|
|------------------------|--------------|----------------|----------------|


|--------------------|
|--------------------|
|-4--------x---------|
|-4--------x--4------|
|-2--------x--4------|
|----------x--2------|

INTRO 2.1 (/OUTRO 2)
 
|------------------------|----------------------|------------------------|
|------------------------|----------------------|------------------------|
|-6--L--6--L--6--L-----6-|--6--L--6--L--6-----6-|--6--L--6--L--L---L--6--|
|-6h-7--6h-7--6h-7-----6-|--7p-6--7p-6--7-----6-|--7p-6--7p-6--L---L--6--|
|------------------------|----------------------|--------------7h--9-----|
|------------------------|----------------------|------------------------|


|-------------------|
|-------------------|
|-------9----9--9\--|
|-------9----9--9\--|
|-------------------|
|-------------------|

INTRO 2.2

|-------------------|-------------------|-------------------|
|-------------------|-------------------|-------------------|
|--6----------------|--L----------------|--L----------------|
|--6----------------|--L----------------|--L----------------|
|--4----------------|--L----------------|--L----------------|
|-------------------|-------------------|-------------------|

VERSE 1

|-x--x-------x----------|-x-------x----------|
|-x--x-------x----------|-x-------x----------|
|-x--x-------x----------|-x-------x----------|
|-x--x--6----x--6----6--|-x--6----x--6----6--|
|-------4-------4----4--|----4-------4----4--|
|-----------------------|--------------------|


|-x--------x-----------|----------------------|-x--x--------x-----------|
|-x--------x-----------|----------------------|-x--x--------x-----------|
|-x--------x-----------|----------------------|-x--x--------x-----------|
|-x--6-----x--6-----6--|-------2----------4---|-x--x--6-----x--6-----6--|
|----4--------4-----4--|----2--L-------4--L---|-------4--------4-----4--|
|----------------------|-0--L--L----2--L--L---|-------------------------|


|-x--------x-----------|-x--------x-----------|-x------------------|
|-x--------x-----------|-x--------x-----------|-x------------------|
|-x--------x-----------|-x--------x-----------|-x------------------|
|-x--------x-----------|-x--------x-----------|-x--------4----2----|
|----7--------7-----7--|----4--------4-----4--|----4-----4----2----|
|----5--------5-----5--|----2--------2-----2--|----2-----2----0----|


(start in verse 2)
|-x--x-------x----------|-x-------x----------|-x-------x----------|
|-x--x-------x----------|-x-------x----------|-x-------x----------|
|-x--x-------x----------|-x-------x----------|-x-------x----------|
|-x--x--6----x--6----6--|-x--6----x--6----6--|-x--6----x--6----6--|
|-------4-------4----4--|----4-------4----4--|----4-------4----4--|
|-----------------------|--------------------|--------------------|

 
|--------------------|--x--x-------x----------|-----x-------x----------|
|--------------------|--x--x-------x----------|-----x-------x----------|
|--------------------|--x--x-------x----------|-----x-------x----------|
|--2--------4--------|--x--x--6----x--6----6--|-----x-------x----------|
|--2--------4--------|--------4-------4----4--|--------7-------7----7--|
|--0--------2--------|------------------------|--------5-------5----5--|


             
|-x--------x-----------|-x-------------------|
|-x--------x-----------|-x----------7--7--7--|
|-x--------x-----------|-x----------6--6--6--|
|-x--------x-----------|-x-------------------|
|----4--------4-----4--|----4-------4--4--4--|
|----2--------2-----2--|----2----------------|

VERSE 2

|---------------|-----------|-----------|----|-----------------|
|---------------|-----------|-----------|----|-----------------|
|-----(9)--(8)-|------(9)--|-(L)-------|----|--------11----9--|
|---------1-----|-----------|-----------|----|--------11----9--|
|---------------|-----------|-----------|----|---------9----7--|
|--0------------|--0--------|--L--------|----|-----------------|


|-7----------------|-7-----------------|-7-----------------|
|------5--7--5-----|----------5--7~----|-------5--7--5-----|
|---------------6--|-------6-----------|----------------6--|
|------------------|-------------------|-------------------|
|------------------|-------------------|-------------------|
|------------------|-------------------|-------------------|


|----------------------|-7-----------------|----5---------5-----|
|----------------------|-------5--7--5-----|--------------------|
|-4~-------3~----------|----------------6--|--------------------|
|----------------6\----|-------------------|--------------------|
|----------------------|-------------------|--------------------|
|----------------------|-------------------|--------------------|

    
|-----------------------|--------------------|------------------------|
|-------7---------7-----|---7-------7--7--7--|------------------------|
|-----------------------|-----------6--6--6--|-------9--9--9--9-------|
|-----------------------|--------------------|-------9--9--9--9-------|
|-----------------------|--------------------|-------7--7--7--7-------|
|-----------------------|--------------------|------------------------|

PRE CHORUS 1

|------------|-------------|------------|-------------|
|------------|-------------|------------|-------------|
|------------|-------------|------------|-------------|
|-2----------|--L----------|-4----------|--L----------|
|-2----------|--L----------|-4----------|--L----------|
|-0----------|--L----------|-2----------|--L----------|

PRE CHORUS 2

|------------------------|
|------------------------|
|-------9--9--9--9-------|
|-------9--9--9--9-------|
|-------7--7--7--7-------|
|------------------------|


|-----x--x----------------|----------------|-----x--x--------------------|
|-----x--x----------------|----------------|-----x--x--------------------|
|--9--x--x--9----9--9--9--|-11--11--11--11-|-11--x--x--11----11--11--11--|
|--9--x--x--9----9--9--9--|-11--11--11--11-|-11--x--x--11----11--11--11--|
|--7--------7----7--7--7--|--9---9---9---9-|--9---------9-----9---9---9--|
|-------------------------|----------------|-----------------------------|

CHORUS

|-x--x-------x----------|-x--x-------x----------|
|-x--x-------x----------|-x--x-------x----------|
|-x--x-------x----------|-x--x-------x----------|
|-x--x--6----x--6----6--|-x--x--9----x--9----9--|
|-------4-------4----4--|-------7-------7----7--|
|-----------------------|-----------------------|

|-x--------x-----------|-x--------x-----------|
|-x--------x-----------|-x--------x-----------|
|-x--------x-----------|-x--------x-----------|
|-x--------x-----------|-x--7-----x--7-----7--|
|----7--------7-----7--|----5--------5-----5--|
|----5--------5-----5--|----------------------|

SOLO 1
 
|---------|-------|
|---------|-------|
|---------|-------|
|---------|-------|
|---------|-------|
|--14/----|--9----|

(solo 2 starts here)

|----------------------------|-------------|-7g9--9--9--7g9--9--9--7g9--9-|
|----------------------------|---------5-7-|-7g9--9--9--7g9--9--9--7g9--9-|
|----------------------------|-----6-------|------------------------------|
|------------------------2-4-|-6--L--------|------------------------------|
|--------------------4-------|-------------|------------------------------|
|-0--0--4--7S-(0)S-4---------|-------------|------------------------------|


|-9--7g9--9--9--------------|-7-------5-----|-4--5--4--5------5----|
|-9--7g9--9--9--7--5--------|---------------|----------7br----5----|
|---------------------6--4--|---------------|----------------------|
|---------------------------|---------------|----------------------|
|---------------------------|---------------|----------------------|
|---------------------------|---------------|----------------------|

 
|--8--9--8--9-------|--8--9--8------------------|----8--9--8--9-------|
|--8--9--8--9-------|--8--9--8--7br-------------|----8--9--8--9-------|
|-------------------|------------------6--9~----|---------------------|
|-------------------|---------------------------|---------------------|
|-------------------|---------------------------|---------------------|
|-------------------|---------------------------|---------------------|

         
|-9--9--9--12br----12--9--9~-|-L--------L---
|----------------------------|--------------
|----------------------------|--------------  START INTERMISION
|----------------------------|--------------
|----------------------------|--------------
|----------------------------|--------------

SOLO 2

|-----------------------|----------------------|
|-----------------------|----------------------|
|-----------------------|----------------------|
|--------7--------------|-------7--------------|
|----------------7----7-|---------------7----7-|
|--5--5-----------------|-5--5-----------------|


|----------------------|----------------------|
|----------------------|----------------------|
|----------------------|----------------------|
|-------9--------------|-------9--------------|
|---------------9----9-|---------------9----9-|
|-7--7-----------------|-7--7-----------------|

INTERMISION

19br-|-L----16--19b~----L-|----|----|----|----|----|----|
-----|--------------------|----|----|----|----|----|----|
-----|--------------------|-6br|--6-|-L--|----|-4s-|----|
-----|--------------------|----|----|----|----|----|----|
-----|--------------------|----|----|----|----|----|----|
-----|--------------------|----|----|----|----|----|----|


OUTRO 1
 
|-----------------------|----------------------|----------------------|
|-----------------------|----------------------|----------------------|
|-----------------------|----------------------|----------------------|
|-----------------------|-----7-------7--------|----------------------|
|-----4-----2--4-----4--|-------------------4--|-----9-------7b----L--|
|-----------------------|----------------------|----------------------|


|-----------------------|-----------------------|----------------------|
|-----------------------|-----------------------|----------------------|
|-----------------------|-----------------------|----------------------|
|-----------------------|-----------------------|-----7-------7--------|
|-----4-----2--4-----4--|-----4-----2--4-----4--|-------------------4--|
|-----------------------|-----------------------|----------------------|


|-----------------------||
|-----------------------||
|-----------------------||
|-----------------------||
|-------9-------7\------||
|-----------------------||





Comments


Popular 69 Eyes tabs & chords
Beneath The Blue Bass Tabs
Lost Boys Bass Tabs
Still Waters Run Deep Bass Tabs
Stolen Season 2 Bass Tabs
The Chair 3 Bass Tabs
Dance D Amour Chords
Dance D Amour Intro Tabs
From Dusk Till Dawn 1 Tabs
From Dusk Till Dawn 2 Tabs
Gothic Girl Intro Tabs


Song lyrics



↑ Back to top | Tablatures and chords are parodies/interpretations of the original songs. You may use it for private study, scholarship, research or language learning purposes only
© 2014 AZChords.com Contact us | Privacy policy | DMCA | Add/correct tabs | Request tabs | Top 50 tabs