>
 >
Devils

Devils Guitar Tabs

69 Eyes - Devils chords, tabs, tablatures, lyrics

Guitar lessons | Add/correct | Request | Top 50 tabs Artists:  A B C D E F G H I J K L M N O P Q R S T U V W X Y Z 0-9

Devils Guitar Tabs – 69 Eyes

CD, Sheet music, Poster

Do you like Devils? Share with your friends now
Bass TabsTabsTabs v2
#------------------------------------------------------------------------------##

                                     DEVILS
                           As recorded by The 69 Eyes
                          (From the 2004 Album DEVILS)

Words by Jyrki69

Music by Bazie
Arranged by The 69 Eyes

Gtr I (Db Ab Db Gb Bb Eb) - 'Bazie'
Gtr II (Db Ab Db Gb Bb Eb) - 'Timo Timo'
Gtr III (Db Ab Db Gb Bb Eb) - 'Keyboard'
Gtr IV (Db Ab Db Gb Bb Eb) - 'Slightly overdriven w\tremolo'

 Intro
  Q=132
  D5
 4/4
  Gtr I
  H    +E  E E E   +Q   E E Q  Q    H    +E  E E E   +Q   E E Q  Q
|----------------|----------------|----------------|----------------|
|----------------|----------------|----------------|----------------|
|----------------|----------------|----------------|----------------|
|-0----(0)-7p0-6-|-(6)--6p0-5--5--|-0----(0)-7p0-6-|-(6)--6p0-5--5--|
|----------------|----------------|----------------|----------------|
|----------------|----------------|----------------|----------------|
|
| Gtr II
| W                +W               W                +W
|----------------|----------------|----------------|----------------|
|----------------|----------------|----------------|----------------|
|-7--------------|-(7)------------|-7--------------|-(7)------------|
|-7--------------|-(7)------------|-7--------------|-(7)------------|
|-5--------------|-(5)------------|-5--------------|-(5)------------|
|----------------|----------------|----------------|----------------|


  H    +E  E E E   +Q   E E Q  Q    H    +E  E E E   +W
|----------------|----------------|----------------|--------|
|----------------|----------------|----------------|--------|
|----------------|----------------|----------------|--------|
|-0----(0)-7p0-6-|-(6)--6p0-5--5--|-0----(0)-7p0-6-|-(6)----|
|----------------|----------------|----------------|--------|
|----------------|----------------|----------------|--------|
|
| W                +W               W                +W
|----------------|----------------|----------------|--------|
|----------------|----------------|----------------|--------|
|-7--------------|-(7)------------|-7--------------|-(7)----|
|-7--------------|-(7)------------|-7--------------|-(7)----|
|-5--------------|-(5)------------|-5--------------|-(5)----|
|----------------|----------------|----------------|--------|


  D5       N.C.              G5      Bb5        N.C.              C5
  Gtrs I, II
  H    +E   E E E   +Q   E E Q  Q     H     +E   E E E   +Q   E E  Q   Q
|-----------------|----------------|-------------------|------------------|
|-----------------|----------------|-------------------|------------------|
|-----------------|----------------|-------------------|------------------|
|-0----(0)--7p0-6-|-(6)--6p0-5--5--|--8-----(8)--7p0-6-|-(6)--6p0-10--10--|
|-0----(0)--------|----------5--5--|--8-----(8)--------|----------10--10--|
|-0----(0)--------|----------5--5--|--8-----(8)--------|----------10--10--|
|
| Gtr III
| H    +E   E E E   +Q   E E Q  Q     H     +E   E E E   +Q   E E  Q   Q
|-----------------|----------------|-------------------|------------------|
|----------10---9-|-(9)--9---8--8--|------------10---9-|-(9)--9----8---8--|
|-7----(7)----7---|--------7-------|-10----(10)----7---|--------7---------|
|-----------------|----------------|-------------------|------------------|
|-----------------|----------------|-------------------|------------------|
|-----------------|----------------|-------------------|------------------|


  D5       N.C.              G5      Bb5        N.C.
  H    +E   E E E   +Q   E E Q  Q     H     +E   E E E   +H.      Q
|-----------------|----------------|-------------------|--------------||
|-----------------|----------------|-------------------|--------------||
|-----------------|----------------|-------------------|--------------||
|-0----(0)--7p0-6-|-(6)--6p0-5--5--|--8-----(8)--7p0-6-|-(6)------6\--||
|-0----(0)--------|----------5--5--|--8-----(8)--------|--------------||
|-0----(0)--------|----------5--5--|--8-----(8)--------|--------------||
|
| H    +E   E E E   +Q   E E Q  Q     H     +E   E E E   +H.      Q
|-----------------|----------------|-------------------|--------------||
|----------10---9-|-(9)--9---8--8--|------------10---9-|-(9)------9\--||
|-7----(7)----7---|--------7-------|-10----(10)----7---|--------------||
|-----------------|----------------|-------------------|--------------||
|-----------------|----------------|-------------------|--------------||
|-----------------|----------------|-------------------|--------------||


   Pre-Verse
    D5        F5      D5                  F5      G5 F5
    Gtr II                                    Gtrs I, II
    PM--------------------------------------|
    E E E E E E E E   E E E E E E E E   E E E E E Q  E
||------------------|-----------------|-----------------||
||o-----------------|-----------------|----------------o||
||------------------|-----------------|-----------------||
||------------------|-----------------|---------3-5--3--||
||o-0-0-0-0---3-3-3-|-0-0-0---0-0-0-0-|---3-3-x-3-5--3-o||
||--0-0-0-0---3-3-3-|-0-0-0---0-0-0-0-|---3-3-x-3-5--3--||
|
|   Gtrs I, III                               Gtr III
|   E E E E E E E E   E E E E E E E E   E E E E E Q  E
||------------------|-----------------|-----------------||
||o-------6---------|---------------6-|---------6-8--6-o||
||--5-7-------5---7-|---7-5---5-7-----|---5---7---------||
||------------------|-------7---------|-----------------||
||o-----------------|-----------------|----------------o||
||------------------|-----------------|-----------------||


   Verse
    D5        F5        G5  F5D5          F5      G5 F5
    PM----------------------------------------|
    E E E E E E E E   E E E E E E E E   E E E E E Q  E  4x
||------------------|-----------------|-----------------||
||o-----------------|-----------------|----------------o||
||------------------|-----------------|-----------------||
||------------------|-----------------|---------3-5--3--||
||o-0-0-0-0---3-3-3-|-3-5-5-3-0-0-0-0-|---3-3-3-3-5--3-o||
||--0-0-0-0---3-3-3-|-3-5-5-3-0-0-0-0-|---3-3-3-3-5--3--||


 Pre-Chorus
  Bb5        C5          Bb5         C5
  Gtr I
  W           W           W           W            W
|----------|-----------|-----------|-----------|---------||
|----------|-----------|-----------|-----------|---------||
|-7--------|--9--------|-10--------|-12--------|---------||
|----------|-----------|-----------|-----------|---------||
|-5--------|--7--------|--8--------|-10--------|--17\----||
|----------|-----------|-----------|-----------|--17\----||
|
| Gtr II
| W           W           W           W           +W
|----------|-----------|-----------|-----------|---------||
|----------|-----------|-----------|-----------|---------||
|----------|-----------|-----------|-----------|---------||
|-8--------|-10--------|--8--------|-10--------|-(10)----||
|-8--------|-10--------|--8--------|-10--------|-(10)----||
|-8--------|-10--------|--8--------|-10--------|-(10)----||


 Chorus
  D5          N.C.             G5  G5
  Gtr II
  H       +E  E E E   +Q   E E Q   Q
|-------------------|--------------------|
|-------------------|--------------------|
|-------------------|--------------------|
|-0-------(0)-7p0-6-|-(6)--6p0-5---5-----|
|-0-------(0)-------|----------5---5-----|
|-0-------(0)-------|----------5---5-----|
|
| Gtr IV
| E E H.              +H       E E E +E
|-------------------|--------------------|
|-----6-------------|-(6)----------8-(8)-|
|---7---------------|------------7-------|
|-7-----------------|----------7---------|
|-------------------|--------------------|
|-------------------|--------------------|


  Bb5         N.C.             C5
  H       +E  E E E   +Q   E E  Q    Q
|-------------------|----------------------|
|-------------------|----------------------|
|-------------------|----------------------|
|-8-------(8)-7p0-6-|-(6)--6p0-10---10-----|
|-8-------(8)-------|----------10---10-----|
|-8-------(8)-------|----------10---10-----|
|
| E E H.              +H        E E  E +E
|-------------------|----------------------|
|-----6-------------|-(6)------------5-(5)-|
|---7---------------|-------------5--------|
|-7-----------------|-----------5----------|
|-------------------|----------------------|
|-------------------|----------------------|


  D5          N.C.             G5
  H       +E  E E E   +Q   E E Q   Q
|-------------------|--------------------|
|-------------------|--------------------|
|-------------------|--------------------|
|-0-------(0)-7p0-6-|-(6)--6p0-5---5-----|
|-0-------(0)-------|----------5---5-----|
|-0-------(0)-------|----------5---5-----|
|
| E E H.              +H       E E E +E
|-------------------|--------------------|
|-----6-------------|-(6)----------8-(8)-|
|---7---------------|------------7-------|
|-7-----------------|----------7---------|
|-------------------|--------------------|
|-------------------|--------------------|


  Bb5         N.C.             F5
  H       +E  E E E   +Q   E E Q   Q
|-------------------|---------------------||
|-------------------|---------------------||
|-------------------|---------------------||
|-8-------(8)-7p0-6-|-(6)--6p0-3---3\-----||
|-8-------(8)-------|----------3---3\-----||
|-8-------(8)-------|----------3---3\-----||
|
| E E H.              +H       E E E  +E
|-------------------|---------------------||
|-----6-------------|-(6)----------6--(6)-||
|---7---------------|------------5--------||
|-7-----------------|----------3----------||
|-------------------|---------------------||
|-------------------|---------------------||


 Pre-Verse
  D5        F5      D5                  F5      G5  F5
  Gtr II                                    Gtrs I, II
  PM--------------------------------------|
  E E E E E E E E   E E E E E E E E   E E E E E Q   E
|-----------------|-----------------|-----------------|
|-----------------|-----------------|-----------------|
|-----------------|-----------------|-----------------|
|-----------------|-----------------|---------3-5---3-|
|-0-0-0-0---3-3-3-|-0-0-0---0-0-0-0-|---3-3-x-3-5---3-|
|-0-0-0-0---3-3-3-|-0-0-0---0-0-0-0-|---3-3-x-3-5---3-|
|
| Gtrs I, III                               Gtr III
| E E E E E E E E   E E E E E E E E   E E E E E E E E
|-----------------|-----------------|-----------------|
|-------6---------|---------------6-|-----------6-8-6-|
|-5-7-------5---7-|---7-5---5-7-----|---5---5-7-------|
|-----------------|-------7---------|-----------------|
|-----------------|-----------------|-----------------|
|-----------------|-----------------|-----------------|


  D5        F5      D5                  F5      G5 F5
  Gtr II                                    Gtrs I, II
  PM--------------------------------------|
  E E E E E E E E   E E E E E E E E   E E E E E Q  E
|-----------------|-----------------|----------------||
|-----------------|-----------------|----------------||
|-----------------|-----------------|----------------||
|-----------------|-----------------|---------3-5--3-||
|-0-0-0-0---3-3-3-|-0-0-0---0-0-0-0-|---3-3-x-3-5--3-||
|-0-0-0-0---3-3-3-|-0-0-0---0-0-0-0-|---3-3-x-3-5--3-||
|
| Gtrs I, III                               Gtr III
| E E E E E E E E   E E E E E E E E   E E E E E Q  E
|-----------------|-----------------|----------------||
|-------6---------|---------------6-|---------6-8--6-||
|-5-7-------5---7-|---7-5---5-7-----|---5---7--------||
|-----------------|-------7---------|----------------||
|-----------------|-----------------|----------------||
|-----------------|-----------------|----------------||


   Verse
    D5        F5        G5  F5D5          F5      G5 F5
    Gtr III                                     Gtrs I, II, III
    PM----------------------------------------|
    E E E E E E E E   E E E E E E E E   E E E E E Q  E
||------------------|-----------------|-----------------||
||o-----------------|-----------------|----------------o||
||------------------|-----------------|-----------------||
||------------------|-----------------|---------3-5--3--||
||o-0-0-0-0---3-3-3-|-3-5-5-3-0-0-0-0-|---3-3-3-3-5--3-o||
||--0-0-0-0---3-3-3-|-3-5-5-3-0-0-0-0-|---3-3-3-3-5--3--||


                                       1.                 2.
    D5        F5        G5  F5D5          F5      G5 F5              G5
    Gtrs II, III                                Gtrs I, II,Gtrs I, II
    PM----------------------------------------|            PM----|
    E E E E E E E E   E E E E E E E E   E E E E E Q  E     E E E E E Q   E
||------------------|-----------------|-----------------||------------------||
||o-----------------|-----------------|----------------o||------------------||
||------------------|-----------------|-----------------||------------------||
||------------------|-----------------|---------3-5--3--||---------3-5------||
||o-0-0-0-0---3-3-3-|-3-5-5-3-0-0-0-0-|---3-3-3-3-5--3-o||---3-3-3-3-5------||
||--0-0-0-0---3-3-3-|-3-5-5-3-0-0-0-0-|---3-3-3-3-5--3--||---3-3-3-3-5------||
|
|                                                          Gtr III
|   W                 W                 W                  H       E Q.
||------------------|-----------------|-----------------||------------------||
||o-----------------|-----------------|----------------o||---------6-8------||
||------------------|-----------------|-----------------||------------------||
||------------------|-----------------|-----------------||------------------||
||o-----------------|-----------------|----------------o||------------------||
||------------------|-----------------|-----------------||------------------||


 Chorus
  D5          N.C.             G5
  Gtr II
  H       +E  E E E   +Q   E E Q   Q
|-------------------|--------------------|
|-------------------|--------------------|
|-------------------|--------------------|
|-0-------(0)-7p0-6-|-(6)--6p0-5---5-----|
|-0-------(0)-------|----------5---5-----|
|-0-------(0)-------|----------5---5-----|
|
| Gtr IV
| E E H.              +H       E E E +E
|-------------------|--------------------|
|-----6-------------|-(6)----------8-(8)-|
|---7---------------|------------7-------|
|-7-----------------|----------7---------|
|-------------------|--------------------|
|-------------------|--------------------|


  Bb5         N.C.             C5
  H       +E  E E E   +Q   E E  Q    Q
|-------------------|----------------------|
|-------------------|----------------------|
|-------------------|----------------------|
|-8-------(8)-7p0-6-|-(6)--6p0-10---10-----|
|-8-------(8)-------|----------10---10-----|
|-8-------(8)-------|----------10---10-----|
|
| E E H.              +H        E E  E +E
|-------------------|----------------------|
|-----6-------------|-(6)------------5-(5)-|
|---7---------------|-------------5--------|
|-7-----------------|-----------5----------|
|-------------------|----------------------|
|-------------------|----------------------|


  D5          N.C.             G5
  H       +E  E E E   +Q   E E Q   Q
|-------------------|--------------------|
|-------------------|--------------------|
|-------------------|--------------------|
|-0-------(0)-7p0-6-|-(6)--6p0-5---5-----|
|-0-------(0)-------|----------5---5-----|
|-0-------(0)-------|----------5---5-----|
|
| E E H.              +H       E E E +E
|-------------------|--------------------|
|-----6-------------|-(6)----------8-(8)-|
|---7---------------|------------7-------|
|-7-----------------|----------7---------|
|-------------------|--------------------|
|-------------------|--------------------|


  Bb5         N.C.             F5
  H       +E  E E E   +Q   E E Q   Q
|-------------------|---------------------|
|-------------------|---------------------|
|-------------------|---------------------|
|-8-------(8)-7p0-6-|-(6)--6p0-3---3\-----|
|-8-------(8)-------|----------3---3\-----|
|-8-------(8)-------|----------3---3\-----|
|
| E E H.              +H       E E E  +E
|-------------------|---------------------|
|-----6-------------|-(6)----------6--(6)-|
|---7---------------|------------5--------|
|-7-----------------|----------3----------|
|-------------------|---------------------|
|-------------------|---------------------|


  D5          N.C.              G5
  H       +E   E E E   +Q   E E Q   Q
|--------------------|--------------------|
|--------------------|--------------------|
|--------------------|--------------------|
|-0-------(0)--7p0-6-|-(6)--6p0-5---5-----|
|-0-------(0)--------|----------5---5-----|
|-0-------(0)--------|----------5---5-----|
|
| E E H.               +H       E E E +E
|--------------------|--------------------|
|-----6--------------|-(6)----------8-(8)-|
|---7----------------|------------7-------|
|-7------------------|----------7---------|
|--------------------|--------------------|
|--------------------|--------------------|
|
| Gtr III
| H       +E   E E E   +Q   E E Q   Q
|--------------------|--------------------|
|-------------10---9-|-(9)--9---8---8-----|
|-7-------(7)----7---|--------7-----------|
|--------------------|--------------------|
|--------------------|--------------------|
|--------------------|--------------------|


  Bb5           N.C.              C5
   H        +E   E E E   +Q   E E  Q    Q
|----------------------|----------------------|
|----------------------|----------------------|
|----------------------|----------------------|
|--8--------(8)--7p0-6-|-(6)--6p0-10---10-----|
|--8--------(8)--------|----------10---10-----|
|--8--------(8)--------|----------10---10-----|
|
|  E E H.                +H        E E  E +E
|----------------------|----------------------|
|------6---------------|-(6)------------5-(5)-|
|----7-----------------|-------------5--------|
|--7-------------------|-----------5----------|
|----------------------|----------------------|
|----------------------|----------------------|
|
|  H        +E   E E E   +Q   E E  Q    Q
|----------------------|----------------------|
|---------------10---9-|-(9)--9----8----8-----|
|-10-------(10)----7---|--------7-------------|
|----------------------|----------------------|
|----------------------|----------------------|
|----------------------|----------------------|


  D5          N.C.              G5
  H       +E   E E E   +Q   E E Q   Q
|--------------------|--------------------|
|--------------------|--------------------|
|--------------------|--------------------|
|-0-------(0)--7p0-6-|-(6)--6p0-5---5-----|
|-0-------(0)--------|----------5---5-----|
|-0-------(0)--------|----------5---5-----|
|
| E E H.               +H       E E E +E
|--------------------|--------------------|
|-----6--------------|-(6)----------8-(8)-|
|---7----------------|------------7-------|
|-7------------------|----------7---------|
|--------------------|--------------------|
|--------------------|--------------------|
|
| H       +E   E E E   +Q   E E Q   Q
|--------------------|--------------------|
|-------------10---9-|-(9)--9---8---8-----|
|-7-------(7)----7---|--------7-----------|
|--------------------|--------------------|
|--------------------|--------------------|
|--------------------|--------------------|


  Bb5
   W                     +W
|----------------------|-----------------||
|----------------------|-----------------||
|----------------------|-----------------||
|--8-------------------|-(8)-------------||
|--8-------------------|-(8)-------------||
|--8-------------------|-(8)-------------||
|
|  E E H.                +W
|----------------------|-----------------||
|------6---------------|-(6)-------------||
|----7-----------------|-----------------||
|--7-------------------|-----------------||
|----------------------|-----------------||
|----------------------|-----------------||
|
|  H        +E   E E E   +Q   E E Q  Q
|----------------------|-----------------||
|---------------10---9-|-(9)--9---8--8\--||
|-10-------(10)----7---|--------7--------||
|----------------------|-----------------||
|----------------------|-----------------||
|----------------------|-----------------||


 Bridge
  F5D5        C5F5D5  C5D5    F5D5          F5D5  D5C5
  Gtr II
  E E E E +E  E E E   E E E E E E E E   +E  E E E E Q.
|-------------------|-----------------|------------------|
|-------------------|-----------------|------------------|
|-------------------|-----------------|------------------|
|-------7-(7)-5-----|-5-7-7-7-------7-|-(7)-------7-5----|
|-3-0-0-5-(5)-3-3-0-|-3-5-5-5-3-0-0-5-|-(5)-3-0-0-5-3----|
|-3-0-0---------3-0-|---------3-0-0---|-----3-0-0--------|


  F5D5        C5F5D5  C5D5    F5D5          F5D5  D5C5
  E E E E +E  E E E   E E E E E E E E   +E  E E E E Q.
|-------------------|-----------------|------------------||
|-------------------|-----------------|------------------||
|-------------------|-----------------|------------------||
|-------7-(7)-5-----|-5-7-7-7-------7-|-(7)-------7-5----||
|-3-0-0-5-(5)-3-3-0-|-3-5-5-5-3-0-0-5-|-(5)-3-0-0-5-3----||
|-3-0-0---------3-0-|---------3-0-0---|-----3-0-0--------||
|
| Gtr I
|                                        <
| W                   W                  W
|-------------------|-----------------|------------------||
|-------------------|-----------------|--3---------------||
|-------------------|-----------------|------------------||
|-------------------|-----------------|------------------||
|-------------------|-----------------|------------------||
|-------------------|-----------------|------------------||


 Guitar Solo
  D5                 F5
  Gtrs II, III
  PM-------------------------------
  E    E  E E     E  E  E      E
|---------------------------------|
|---------------------------------|
|---------------------------------|
|---------------------------------|
|-0----0--0-0--------3--3------3--|
|-0----0--0-0--------3--3------3--|
|
| E   +E  E E    +E  E  E     +E
|---------------------------------|
|-3---(3)---6----(6)----8-----(8)-|
|-5b7-(5)---8b10-(8)---10b12-(10)-|
|---------------------------------|
|---------------------------------|
|---------------------------------|


  D5                                                              F5                G5    F5
 --------------------------------------------------------------------|
  E  E      E        E  E   E         E                E      E    E  E  E  E        Q    E
|---------------------------------------------------------|---------------------------------|
|---------------------------------------------------------|---------------------------------|
|---------------------------------------------------------|---------------------------------|
|---------------------------------------------------------|-----------------3--------5----3-|
|-0--0------0-----------0---0---------0----------------0--|--------3--3--x--3--------5----3-|
|-0--0------0-----------0---0---------0----------------0--|--------3--3--x--3--------5----3-|
|
|                                                                           |--3--|
| E  E     +E       +Q      S   +S    S      +S       +E     +E    E  E  E  S  S  S  E  E E
|---------------------------------------------------------|---------------------------------|
|---10----(10)-----(10)----13--(13)p=10-----(10)-----(10)-|-(10)----------------------------|
|---12b14r(12)b14==(12)---(12)-(12)r(12)b14r(12)b14==(12)-|-(12)r----10---------------------|
|---------------------------------------------------------|-------12----12-10-12-10----10p0-|
|---------------------------------------------------------|-------------------------12------|
|---------------------------------------------------------|---------------------------------|


  D5                    F5
  PM------------------------------
  E  E       E    E   E  E  E  E
|--------------------------------|
|--------------------------------|
|--------------------------------|
|--------------------------------|
|-0--0-------0----0------3--3--3-|
|-0--0-------0----0------3--3--3-|
|
|            ~~~~
| E  E      +E   +Q      E  E  E
|--------------------------------|
|---13b15==(13)-(13)r---15-13-10-|
|--------------------------------|
|--------------------------------|
|--------------------------------|
|--------------------------------|


  D5                                           F5           G5    F5
 -------------------------------------------------|
   E       E    E    E      E   E  E  E     E   E  E  E   E  Q     E
|---------------------------------------|----------------------------||
|---------------------------------------|----------------------------||
|---------------------------------------|----------------------------||
|---------------------------------------|-----------------3--5-----3-||
|--0-------0----0-----------0---0--0--0-|-------3--3--x---3--5-----3-||
|--0-------0----0-----------0---0--0--0-|-------3--3--x---3--5-----3-||
|
|  E      +E    E    E     +E   E  E  E    +E   E  E  E   E  E  E  E
|---------------------------------------|----------------------------||
|--------------13-----------------------|----------------------15-15-||
|-12b14==(12)-(12)r-12b14-(12)----10----|---------------/14-17-------||
|------------------------------12----12-|-(12)----10-----------------||
|---------------------------------------|------12----12--------------||
|---------------------------------------|----------------------------||


 Pre-Chorus
  Bb5                  C5          Bb5         C5
  Gtr I
   +E   +E   H.         W           W           W            W
|--------------------|-----------|-----------|-----------|---------||
|-(15)-(15)\---------|-----------|-----------|-----------|---------||
|--------------------|--9--------|-10--------|-12--------|---------||
|--------------------|-----------|-----------|-----------|---------||
|--------------------|--7--------|--8--------|-10--------|--17\----||
|--------------------|-----------|-----------|-----------|--17\----||
|
| Gtr II
|   W                   W           W           W           +W
|--------------------|-----------|-----------|-----------|---------||
|--------------------|-----------|-----------|-----------|---------||
|--------------------|-----------|-----------|-----------|---------||
|---8----------------|-10--------|--8--------|-10--------|-(10)----||
|---8----------------|-10--------|--8--------|-10--------|-(10)----||
|---8----------------|-10--------|--8--------|-10--------|-(10)----||
|
| Gtr III
|   W                   W           W           W           +W
|--------------------|-----------|-----------|-----------|---------||
|--------------------|-----------|-----------|-----------|---------||
|---7----------------|--5--------|--7--------|--5--------|--(5)----||
|--------------------|-----------|-----------|-----------|---------||
|---5----------------|--3--------|--5--------|--3--------|--(3)----||
|--------------------|-----------|-----------|-----------|---------||


 Chorus
  D5          N.C.              G5
  Gtr II
  H       +E   E E E   +Q   E E Q   Q
|--------------------|--------------------|
|--------------------|--------------------|
|--------------------|--------------------|
|-0-------(0)--7p0-6-|-(6)--6p0-5---5-----|
|-0-------(0)--------|----------5---5-----|
|-0-------(0)--------|----------5---5-----|
|
| Gtr IV
| E E H.               +H       E E E +E
|--------------------|--------------------|
|-----6--------------|-(6)----------8-(8)-|
|---7----------------|------------7-------|
|-7------------------|----------7---------|
|--------------------|--------------------|
|--------------------|--------------------|
|
| Gtr III
| H       +E   E E E   +Q   E E Q   Q
|--------------------|--------------------|
|-------------10---9-|-(9)--9---8---8-----|
|-7-------(7)----7---|--------7-----------|
|--------------------|--------------------|
|--------------------|--------------------|
|--------------------|--------------------|


  Bb5           N.C.              C5
   H        +E   E E E   +Q   E E  Q    Q
|----------------------|----------------------|
|----------------------|----------------------|
|----------------------|----------------------|
|--8--------(8)--7p0-6-|-(6)--6p0-10---10-----|
|--8--------(8)--------|----------10---10-----|
|--8--------(8)--------|----------10---10-----|
|
|  E E H.                +H        E E  E +E
|----------------------|----------------------|
|------6---------------|-(6)------------5-(5)-|
|----7-----------------|-------------5--------|
|--7-------------------|-----------5----------|
|----------------------|----------------------|
|----------------------|----------------------|
|
|  H        +E   E E E   +Q   E E  Q    Q
|----------------------|----------------------|
|---------------10---9-|-(9)--9----8----8-----|
|-10-------(10)----7---|--------7-------------|
|----------------------|----------------------|
|----------------------|----------------------|
|----------------------|----------------------|


  D5          N.C.              G5
  H       +E   E E E   +Q   E E Q   Q
|--------------------|--------------------|
|--------------------|--------------------|
|--------------------|--------------------|
|-0-------(0)--7p0-6-|-(6)--6p0-5---5-----|
|-0-------(0)--------|----------5---5-----|
|-0-------(0)--------|----------5---5-----|
|
| E E H.               +H       E E E +E
|--------------------|--------------------|
|-----6--------------|-(6)----------8-(8)-|
|---7----------------|------------7-------|
|-7------------------|----------7---------|
|--------------------|--------------------|
|--------------------|--------------------|
|
| H       +E   E E E   +Q   E E Q   Q
|--------------------|--------------------|
|-------------10---9-|-(9)--9---8---8-----|
|-7-------(7)----7---|--------7-----------|
|--------------------|--------------------|
|--------------------|--------------------|
|--------------------|--------------------|


  Bb5           N.C.              F5
   H        +E   E E E   +Q   E E Q   Q
|----------------------|---------------------|
|----------------------|---------------------|
|----------------------|---------------------|
|--8--------(8)--7p0-6-|-(6)--6p0-3---3\-----|
|--8--------(8)--------|----------3---3\-----|
|--8--------(8)--------|----------3---3\-----|
|
|  E E H.                +H       E E E  +E
|----------------------|---------------------|
|------6---------------|-(6)----------6--(6)-|
|----7-----------------|------------5--------|
|--7-------------------|----------3----------|
|----------------------|---------------------|
|----------------------|---------------------|
|
|  H        +E   E E E   +Q   E E Q   Q
|----------------------|---------------------|
|---------------10---9-|-(9)--9---8---8\-----|
|-10-------(10)----7---|--------7------------|
|----------------------|---------------------|
|----------------------|---------------------|
|----------------------|---------------------|


  D5          N.C.              G5
  H       +E   E E E   +Q   E E Q   Q
|--------------------|--------------------|
|--------------------|--------------------|
|--------------------|--------------------|
|-0-------(0)--7p0-6-|-(6)--6p0-5---5-----|
|-0-------(0)--------|----------5---5-----|
|-0-------(0)--------|----------5---5-----|
|
| E E H.               +H       E E E +E
|--------------------|--------------------|
|-----6--------------|-(6)----------8-(8)-|
|---7----------------|------------7-------|
|-7------------------|----------7---------|
|--------------------|--------------------|
|--------------------|--------------------|
|
| H       +E   E E E   +Q   E E Q   Q
|--------------------|--------------------|
|-------------10---9-|-(9)--9---8---8-----|
|-7-------(7)----7---|--------7-----------|
|--------------------|--------------------|
|--------------------|--------------------|
|--------------------|--------------------|


  Bb5           N.C.              C5
   H        +E   E E E   +Q   E E  Q    Q
|----------------------|----------------------|
|----------------------|----------------------|
|----------------------|----------------------|
|--8--------(8)--7p0-6-|-(6)--6p0-10---10-----|
|--8--------(8)--------|----------10---10-----|
|--8--------(8)--------|----------10---10-----|
|
|  E E H.                +H        E E  E +E
|----------------------|----------------------|
|------6---------------|-(6)------------5-(5)-|
|----7-----------------|-------------5--------|
|--7-------------------|-----------5----------|
|----------------------|----------------------|
|----------------------|----------------------|
|
|  H        +E   E E E   +Q   E E  Q    Q
|----------------------|----------------------|
|---------------10---9-|-(9)--9----8----8-----|
|-10-------(10)----7---|--------7-------------|
|----------------------|----------------------|
|----------------------|----------------------|
|----------------------|----------------------|


  D5          N.C.              G5
  H       +E   E E E   +Q   E E Q   Q
|--------------------|--------------------|
|--------------------|--------------------|
|--------------------|--------------------|
|-0-------(0)--7p0-6-|-(6)--6p0-5---5-----|
|-0-------(0)--------|----------5---5-----|
|-0-------(0)--------|----------5---5-----|
|
| E E H.               +H       E E E +E
|--------------------|--------------------|
|-----6--------------|-(6)----------8-(8)-|
|---7----------------|------------7-------|
|-7------------------|----------7---------|
|--------------------|--------------------|
|--------------------|--------------------|
|
| H       +E   E E E   +Q   E E Q   Q
|--------------------|--------------------|
|-------------10---9-|-(9)--9---8---8-----|
|-7-------(7)----7---|--------7-----------|
|--------------------|--------------------|
|--------------------|--------------------|
|--------------------|--------------------|


  Bb5
   W                     +H.         Q
|----------------------|-----------------||
|----------------------|-----------------||
|----------------------|-----------------||
|--8-------------------|-(8)---------8\--||
|--8-------------------|-(8)---------8\--||
|--8-------------------|-(8)---------8\--||
|
|  E E H.                +W
|----------------------|-----------------||
|------6---------------|-(6)-------------||
|----7-----------------|-----------------||
|--7-------------------|-----------------||
|----------------------|-----------------||
|----------------------|-----------------||
|
|  H        +E   E E E   +Q   E E Q  Q
|----------------------|-----------------||
|---------------10---9-|-(9)--9---8--8\--||
|-10-------(10)----7---|--------7--------||
|----------------------|-----------------||
|----------------------|-----------------||
|----------------------|-----------------||


   Out-Chorus
    D5        F5      D5                  F5      G5  F5
    Gtr II
    PM--------------------------------------|
    E E E E E E E E   E E E E E E E E   E E E E E Q   E
||------------------|-----------------|------------------||
||o-----------------|-----------------|-----------------o||
||------------------|-----------------|------------------||
||------------------|-----------------|---------3-5---3--||
||o-0-0-0-0---3-3-3-|-0-0-0---0-0-0-0-|---3-3-x-3-5---3-o||
||--0-0-0-0---3-3-3-|-0-0-0---0-0-0-0-|---3-3-x-3-5---3--||
|
|   Gtr I
|   E E E E E E E E   E E E E E E E E   E E E E E Q   E
||------------------|-----------------|------------------||
||o-------6---------|---------------6-|---------6-8---6-o||
||--5-7-------5---7-|---7-5---5-7-----|---5---7----------||
||------------------|-------7---------|------------------||
||o-----------------|-----------------|-----------------o||
||------------------|-----------------|------------------||
|
|   E E E E E E E E   E E E E E E E E   E E E E E E E E
||------------------|-----------------|------------------||
||o-3-3-3-3---6-6-6-|-3-3-3---3-3-3-3-|---6-6-6---6-8-6-o||
||--2-2-2-2---5-5-5-|-2-2-2---2-2-2-2-|---5-5-5-7---7-5--||
||------------------|-----------------|------------------||
||o-----------------|-----------------|-----------------o||
||------------------|-----------------|------------------||


 Outro
  D5  N.C.
  Q    H.                W                  W                W
|--------------------|--------------------|---------------|--------*|
|--------------------|--------------------|---------------|--------*|
|--------------------|--------------------|---------------|--------*|
|-0------------------|--------------------|---------------|--------*|
|-0------------------|--------------------|---------------|--------*|
|-0------------------|--------------------|---------------|--------*|
|
| Gtr IV
| E E  E  E E E E  E    +E  E E E E  Q  E   E  E E E H      +W
|-----------------10-|-(10)---------------|---------------|--------*|
|-----10----9--------|--------9---9-10----|---10-----9----|-(9)----*|
|-7-7-----7---7-7----|------7---7-------7-|-7----7-7------|--------*|
|--------------------|--------------------|---------------|--------*|
|--------------------|--------------------|---------------|--------*|
|--------------------|--------------------|---------------|--------*|


Duration Legend
---------------
W - whole; H - half; Q - quarter; E - 8th; S - 16th; T - 32nd; X - 64th; a - acciaccatura
+ - note tied to previous; . - note dotted; .. - note double dotted
Uncapitalized letters represent notes that are staccato (1/2 duration)
Irregular groupings are notated above the duration line
Duration letters will always appear directly above the note/fret number it represents the
duration for.  Duration letters with no fret number below them represent rests.  Multi-
bar rests are notated in the form Wxn, where n is the number of bars to rest for.  Low
melody durations appear below the staff

Tablature Legend
----------------
 h   - hammer-on
 p   - pull-off
 b   - bend
 pb  - pre-bend
 r   - bend release (if no number after the r, then release immediately)
 /\  - slide into or out of (from/to "nowhere")
 s   - legato slide
 S   - shift slide
  - natural harmonic
[n]  - artificial harmonic
n(n) - tapped harmonic
 ~   - vibrato
 tr  - trill
 T   - tap
 TP  - trem. picking
 PM  - palm muting
\n/  - tremolo bar dip; n = amount to dip
 \n  - tremolo bar down
 n/  - tremolo bar up
/n\  - tremolo bar inverted dip
 =   - hold bend; also acts as connecting device for hammers/pulls
 <>  - volume swell (louder/softer)
 x   - on rhythm slash represents muted slash
 o   - on rhythm slash represents single note slash

Misc Legend
-----------
 |  - bar
||  - double bar
||o - repeat start
o|| - repeat end
*|  - double bar (ending)
 :  - bar (freetime)
 $  - Segno
 &  - Coda
Tempo markers -  = BPM(8/16=s8/s16), where s8 = swing 8ths, s16 = swing 16ths





Comments


Popular 69 Eyes tabs & chords
Brandon Lee Bass Tabs
Christina Death Bass Tabs
Lost Boys Bass Tabs
Sleeping With Lions Bass Tabs
Gothic Girl Tabs
Gothic Girl 1 Tabs
Lost Boys 1 Tabs
Nothing On You 1 Tabs
Velvet Touch Tabs
Borderline Ukulele


Song lyrics



↑ Back to top | Tablatures and chords are parodies/interpretations of the original songs. You may use it for private study, scholarship, research or language learning purposes only
© 2014 AZChords.com Contact us | Privacy policy | DMCA | Add/correct tabs | Request tabs | Top 50 tabs