» » »

Nothing On You Tabs (ver.1)

Artists:  A B C D E F G H I J K L M N O P Q R S T U V W X Y Z # 

Nothing On You Tabs (ver.1)

69 Eyes
Rating:
0/5 (0 votes)

Hard to play? Try these video lessons and learn fast.
                69Eyes - Nothing On You (Devils)

Riff1 (Intro)
e---------------------------------------------------------------------------|
h---------------------------------------------------------------------------|
g---------------------------------------------------------------------------|
D-7-5-7-9-11---7-5-7-9-11---7-5-7-9-11---7-7-9------------------------------|
A-7-5-7-9-11---7-5-7-9-11---7-5-7-9-11---7-7-9------------------------------|
E---------------------------------------------------------------------------|

Riff2 (Vers)
e---------------------------------------------------------------------------|
h---------------------------------------------------------------------------|
g---------------------------------------------------------------------------|
D-7--9--7--5-5-11------------7-7-11-----------------------------------------|
A-7--9--7--5-5-11------------7-7-11-----------------------------------------|
E---------------------------------------------------------------------------|

Riff3 (before the Solo starts)
e---------------------------------------------------------------------------|
h---------------------------------------------------------------------------|
g---------------------------------------------------------------------------|
D-7-5-7-9-11-----9-5-5-5----------------------------------------------------|
A-7-5-7-9-11-----9-5-5-5----------------------------------------------------|
E---------------------------------------------------------------------------|

Riff4 (Chorus)
e---------------------------------------------------------------------------|
h---------------------------------------------------------------------------|
g---------------------------------------------------------------------------|
D-5-5-5-9-7-5-5-5-7-7-9-9-9-11-11-11---5-5-5-9-7-5-5-5-7-7-9-11-9-9-11------|
A-5-5-5-9-7-5-5-5-7-7-9-9-9-11-11-11---5-5-5-9-7-5-5-5-7-7-9-11-9-9-11------|
E---------------------------------------------------------------------------|

Riff5 (before Refrain starts)
e---------------------------------------------------------------------------|
h---------------------------------------------------------------------------|
g---------------------------------------------------------------------------|
D-7-7-7-7-7-7-7-7-7-9-9-9-9-9-9-9-9-9---------------------------------------|
A-7-7-7-7-7-7-7-7-7-9-9-9-9-9-9-9-9-9---------------------------------------|
E---------------------------------------------------------------------------|

maybe i will find out the solo...
            
Hard to play? Try these video lessons and learn fast. | Correct




comments powered by Disqus
↑ Back to top | Tablatures and chords are parodies/interpretations of the original songs. You may use it for private study, scholarship, research or language learning purposes only