>
 >
Nothing On You

Nothing On You Bass Tabs

69 Eyes - Nothing On You chords, tabs, tablatures, lyrics

Guitar lessons | Add/correct | Request | Top 50 tabs Artists:  A B C D E F G H I J K L M N O P Q R S T U V W X Y Z 0-9

Nothing On You Bass Tabs – 69 Eyes

CD, Sheet music, Poster

Do you like Nothing On You? Share with your friends now
Bass TabsTabsTabs v2
#------------------------------------------------------------------------------##

                            NOTHING ON YOU (Bassline)
                           As recorded by The 69 Eyes
                          (From the 2004 Album DEVILS)

Words by Jyrki69

Music by Bazie
Arranged by The 69 Eyes

Gtr I (Db Ab Db Gb) - 'Archzie'

 Intro
  Q=126
 4/4
  Gtr I
  Wx4
|--------|
|--------|
|--------|
|--------|


  E E E E E E E E   E E E E E E E E   E E E E E E E E   E  E  E  E  E  E  E  E
|-----------------|-----------------|-----------------|------------------------|
|-----------------|-----------------|-----------------|------------------------|
|-----------------|-----------------|-----------------|------------------------|
|-7-7-7-7-7-7-7-7-|-7-7-7-7-7-7-7-7-|-7-7-7-7-7-7-7-7-|-7-10-10-10-12-12-12-12-|


  $
  E E E E E E E E   E E E E E E E E
|-----------------|-----------------|
|-----------------|-----------------|
|-----------------|-----------------|
|-7-7-7-7-7-7-7-7-|-7-7-7-7-7-7-7-7-|


  E E E E E E E E   E  E  E  E  E  E  E  E
|-----------------|------------------------||
|-----------------|------------------------||
|-----------------|------------------------||
|-7-7-7-7-7-7-7-7-|-7-10-10-10-12-12-12-12-||


   Verse
    E E E E E E E E   E E E E E E E E   E E E E E E E E   E E E E E E E E   3x
||------------------|-----------------|-----------------|-------------------||
||o-----------------|-----------------|-----------------|------------------o||
||o-----------------|-----------------|-----------------|------------------o||
||--7-7-7-7-7-7-7-7-|-7-7-7-7-7-7-7-7-|-7-7-7-7-7-7-7-7-|-7-7-7-7-7-0-3-5---||


  E E E E E E E E   E E E E E E E E   E E E E E E E E   E E E E E E E E
|-----------------|-----------------|-----------------|-----------------|
|-----------------|-----------------|-----------------|-----------------|
|-----------------|-----------------|-----------------|-----------------|
|-7-7-7-7-7-7-7-7-|-7-7-7-7-7-7-7-7-|-5-5-5-5-5-5-5-5-|-0-0-0-0-0-0-0-0-|


  E E E E E E E E   +E  E E E E E E E
|-----------------|-------------------|
|-----------------|-------------------|
|---------------8-|-(8)-8-8-8-8-8-5-3-|
|-3-3-3-3-3-5s7---|-------------------|


  E E E E E  E  E  E    +E   E  E  E  E  E E E
|--------------------|-------------------------||
|--------------------|-------------------------||
|-----------------10-|-(10)-10-10-10-10-10-7-5-||
|-5-5-5-5-5-10-12----|-------------------------||


   Chorus
    $$
    E E E E E E E E   E E E E E E E E   E E E E E E E E   E E E E E E E E
||------------------|-----------------|-----------------|------------------|
||o-----------------|-----------------|-----------------|------------------|
||o-----------------|-----------------|-----------------|------------------|
||--7-7-7-7-7-7-7-7-|-5-5-5-5-5-5-5-5-|-3-3-3-3-3-3-3-3-|-0-0-0-0-0-0-0-0--|


                                                                  D.S.
                                                                  D.S.
  E E E E E E E E   E E E E E E E E   E E E E E E E E   E E E E E E E E
|-----------------|-----------------|-----------------|------------------||
|-----------------|-----------------|-----------------|-----------------o||
|-----------------|-----------------|-----------------|-----------------o||
|-7-7-7-7-7-7-7-7-|-5-5-5-5-5-5-5-5-|-0-0-0-0-0-0-0-0-|-3-3-3-3-5-5-5-5--||


 Interlude
  W          +W           +W           +W
|----------|------------|------------|--------|
|----------|------------|------------|--------|
|----------|------------|------------|--------|
|-7--------|-(7)--------|-(7)--------|-(7)----|


   H..       E   W          W          +W
|--------------|----------|----------|--------|
|--------------|----------|----------|--------|
|-10---------7-|-5--------|----------|--------|
|--------------|----------|-7--------|-(7)----|


   E  E  E  E  E  E  E E   E E E E E E E E   E E E E E E E E   E E E E E E E E
|------------------------|-----------------|-----------------|-----------------|
|------------------------|-----------------|-----------------|-----------------|
|-10-10-10-10-10-10-10-7-|-5-5-5-5-5-5-5-5-|-----------------|-----------------|
|------------------------|-----------------|-7-7-7-7-7-7-7-7-|-7-7-7-7-7-7-7-7-|


   E  E  E  E  E  E  E E   E E E E E E E E
|------------------------|-----------------|
|------------------------|-----------------|
|-10-10-10-10-10-10-10-7-|-5-5-5-5-5-5-5-5-|
|------------------------|-----------------|


  E E E E E E E E   E E E E E E E E
|-----------------|-----------------||
|-----------------|---7-7-7-7-7-7-7-||
|-----------------|-----------------||
|-7-7-7-7-7-7-7-7-|-7---------------||


 Guitar Solo
  E E E E E E E E   E E E E E E E E   E E E E E E E E   E E E E E E E E
|-----------------|-----------------|-----------------|-----------------|
|-----------------|-----------------|-----------------|-----------------|
|-----------------|-----------------|-----------------|-----------------|
|-5-5-5-5-5-5-5-5-|-0-0-0-0-0-0-0-0-|-7-7-7-7-7-7-7-7-|-7-7-7-7-7-7-7-7-|


                                                          D.S.S. al Coda
  E E E E E E E E   +E  E E E E E E E   E E E E E E E E   E E E E E E E E
|-----------------|-------------------|-----------------|-----------------||
|-----------------|-------------------|-----------------|-----------------||
|-----------------|-------------------|-3-3-3-3-3-3-3-3-|-5-5-5-5-5-5-5-5-||
|-5-5-5-5-5-5-5-0-|-(0)-0-0-0-0-0-0-0-|-----------------|-----------------||


   Outro
    &
    E E E E E E E E   E E E E E E E E   E E E E E E E E
||------------------|-----------------|-----------------|
||o-----------------|-----------------|-----------------|
||o-----------------|-----------------|-----------------|
||--7-7-7-7-7-7-7-7-|-5-5-5-5-5-5-5-5-|-3-3-3-3-3-3-3-3-|


  1.                        2.
  E  E  E  E  E  E  E  E     E  E  E  E  E  E  E  +E    Q  H.
|-------------------------||--------------------------|----------*|
|------------------------o||--------------------------|----------*|
|------------------------o||--------------------------|----------*|
|-3-10-10-10-12-12-12-12--||-3-10-10-10-12-12-12-(12)-|-7--------*|


Duration Legend
---------------
W - whole; H - half; Q - quarter; E - 8th; S - 16th; T - 32nd; X - 64th; a - acciaccatura
+ - note tied to previous; . - note dotted; .. - note double dotted
Uncapitalized letters represent notes that are staccato (1/2 duration)
Irregular groupings are notated above the duration line
Duration letters will always appear directly above the note/fret number it represents the
duration for.  Duration letters with no fret number below them represent rests.  Multi-
bar rests are notated in the form Wxn, where n is the number of bars to rest for.  Low
melody durations appear below the staff

Tablature Legend
----------------
 h   - hammer-on
 p   - pull-off
 b   - bend
 pb  - pre-bend
 r   - bend release (if no number after the r, then release immediately)
 /\  - slide into or out of (from/to "nowhere")
 s   - legato slide
 S   - shift slide
  - natural harmonic
[n]  - artificial harmonic
n(n) - tapped harmonic
 ~   - vibrato
 tr  - trill
 T   - tap
 TP  - trem. picking
 PM  - palm muting
\n/  - tremolo bar dip; n = amount to dip
 \n  - tremolo bar down
 n/  - tremolo bar up
/n\  - tremolo bar inverted dip
 =   - hold bend; also acts as connecting device for hammers/pulls
 <>  - volume swell (louder/softer)
 x   - on rhythm slash represents muted slash
 o   - on rhythm slash represents single note slash

Misc Legend
-----------
 |  - bar
||  - double bar
||o - repeat start
o|| - repeat end
*|  - double bar (ending)
 :  - bar (freetime)
 $  - Segno
 &  - Coda
Tempo markers -  = BPM(8/16=s8/s16), where s8 = swing 8ths, s16 = swing 16ths





Comments


Popular 69 Eyes tabs & chords
Brandon Lee 1 Bass Tabs
Gothic Girl 1 Bass Tabs
Sleeping With Lions Bass Tabs
Still Waters Run Deep Bass Tabs
Borderline 1 Chords
Brandon Lee Chords
Red Chords
Dance D Amour Tabs
Devils Intro Tabs
Wasting The Dawn 1 Tabs


Song lyrics



↑ Back to top | Tablatures and chords are parodies/interpretations of the original songs. You may use it for private study, scholarship, research or language learning purposes only
© 2014 AZChords.com Contact us | Privacy policy | DMCA | Add/correct tabs | Request tabs | Top 50 tabs