>
 >
Gothic Girl 1

Gothic Girl 1 Guitar Tabs

69 Eyes - Gothic Girl 1 chords, tabs, tablatures, lyrics

Guitar lessons | Add/correct | Request | Top 50 tabs Artists:  A B C D E F G H I J K L M N O P Q R S T U V W X Y Z 0-9

Gothic Girl 1 Guitar Tabs – 69 Eyes

CD, Sheet music, Poster

Do you like Gothic Girl 1? Share with your friends now
Bass TabsBass Tabs v2TabsTabs v2
#------------------------------------------------------------------------------##

                                   GOTHIC GIRL
                           As recorded by The 69 Eyes
                        (From the 2000 Album BLESSED BE)

Words by Jyrki

Music by Bazie
Arranged by The 69 Eyes

          F5                  Bb5/F                 Db5                  Eb5
      1 3 x x x x          1 1 3 x x x          x 4 6 6 x x          x 6 8 8 x x

Gtr I (Eb Ab Db Gb Bb Eb) - 'Acoustic'
Gtr II (Eb Ab Db Gb Bb Eb) - 'Distortion'
Gtr III (Eb Ab Db Gb Bb Eb) - 'Distortion'
Gtr IV (Eb Ab Db Gb Bb Eb) - 'Keyb'
Gtr V (Eb Ab Db Gb Bb Eb) - 'Keyb'

   Intro
    Q=127
    N.C.
   4/4
    Gtrs I, II
                      >                                 >
    E E E E +H       +H..       +E    E E E Q.   E E   +H..       +E
||-----------------|----------------|----------------|-----------------||
||o-------5-(5)----|-(5)--------(5)-|-------5------4-|-(4)--------(4)-o||
||----2------------|----------------|---2------------|-----------------||
||------4----------|----------------|-----4------4---|-----------------||
||o----------------|----------------|----------------|----------------o||
||--2--------------|----------------|-2--------------|-----------------||


  (F#m7)         (B)                 (F#m7)         (B)
  Gtr I
   Q  H    E E   +E  E E E E E E E    Q  H    E E   +E  E E E E E E E
|--------------|-----------2-------|--------------|-----------2--------|
|----------5-4-|-(4)---4-----4-----|----------5-4-|-(4)---4-----4------|
|-----2--------|-----4---4-----4-2-|-----2--------|-----4---4-----4-2--|
|--4-----------|-------------------|--4-----------|--------------------|
|--------------|-------------------|--------------|--------------------|
|--------------|-------------------|--------------|--------------------|
|
| Gtr II
|  Q  H    E E   +W                   Q  H    E E   +W
|--------------|-------------------|--------------|--------------------|
|--------------|-------------------|--------------|--------------------|
|--------------|-------------------|--------------|--------------------|
|-/4--2--------|-------------------|-/4--2--------|--------------------|
|----------4---|-------------------|----------4---|--------------------|
|------------2-|-(2)---------------|------------2-|-(2)----------------|


  (F#m7)         (B)                 (F#m7)         (B)
   Q  H    E E   +E  E E E E E E E    Q  H    E E   +E  E E E E E E E
|--------------|-----------2-------|--------------|-----------2--------||
|----------5-4-|-(4)---4-----4-----|----------5-4-|-(4)---4-----4------||
|-----2--------|-----4---4-----4-2-|-----2--------|-----4---4-----4-2--||
|--4-----------|-------------------|--4-----------|--------------------||
|--------------|-------------------|--------------|--------------------||
|--------------|-------------------|--------------|--------------------||
|
|  Q  H    E E   +W                   Q  H    E E   +W
|--------------|-------------------|--------------|--------------------||
|--------------|-------------------|--------------|--------------------||
|--------------|-------------------|--------------|--------------------||
|-/4--2--------|-------------------|-/4--2--------|--------------------||
|----------4---|-------------------|----------4-2-|-(2)----------------||
|------------2-|-(2)---------------|--------------|--------------------||


   Verse
    (F#m7)                            (D)                (B)
    Gtrs I, II
             >                                            >
    E E E E +H       +H..       +E    E E E H    S  S     H..       +E    4x
||-----------------|----------------|------------------|------------------||
||o-------5-(5)----|-(5)--------(5)-|-------3----------|--4---------(4)--o||
||----2------------|----------------|---2-----------4--|-(4)--------(4)---||
||------4----------|----------------|-----4------4-(4)-|-(4)--------(4)---||
||o----------------|----------------|------------------|-----------------o||
||--2--------------|----------------|-2----------------|------------------||


   Pre-Chorus
                                             1.                   2.
    G#5                            E5
    Gtrs II, III
    W          +W                  W          +W                   +E  H..
||-----------|-------------------|----------|-------------------||------------||
||o----------|-------------------|----------|------------------o||------------||
||-----------|-------------------|----------|-------------------||------------||
||--6--------|-(6)---------------|-2--------|-(2)---------------||-(2)--------||
||o-6--------|-(6)---------------|-2--------|-(2)--------------o||-(2)--------||
||--4--------|-(4)---------------|-0--------|-(0)---------------||-(0)--------||
|
|   Gtr IV
|   W           Q    Q   Q.    E   W           Q    Q  Q.    E      W
||-----------|-------------------|----------|-------------------||------------||
||o-9--------|--9---11--12----11-|----------|----------9----11-o||------------||
||-----------|-------------------|-9--------|--9---11-----------||------------||
||-----------|-------------------|----------|-------------------||------------||
||o----------|-------------------|----------|------------------o||------------||
||-----------|-------------------|----------|-------------------||------------||


 Chorus
  (F#m7)         (B)                 (F#m7)         (B)
  Gtr I
   Q  H    E E   +E  E E E E E E E    Q  H    E E   +E  E E E E E E E
|--------------|-----------2-------|--------------|-----------2--------|
|----------5-4-|-(4)---4-----4-----|----------5-4-|-(4)---4-----4------|
|-----2--------|-----4---4-----4-2-|-----2--------|-----4---4-----4-2--|
|-/4-----------|-------------------|-/4-----------|--------------------|
|--------------|-------------------|--------------|--------------------|
|--------------|-------------------|--------------|--------------------|
|
| Gtr II
|  Q  H    E E   +W                   Q  H    E E   +W
|--------------|-------------------|--------------|--------------------|
|--------------|-------------------|--------------|--------------------|
|--------------|-------------------|--------------|--------------------|
|-/4--2--------|-------------------|-/4--2--------|--------------------|
|----------4---|-------------------|----------4---|--------------------|
|------------2-|-(2)---------------|------------2-|-(2)----------------|


  (F#m7)         (B)                 D5               E5
   Q  H    E E   +E  E E E E E E E   E E E E +H       E E E E +H
|--------------|-----------2-------|----------------|----------------|
|----------5-4-|-(4)---4-----4-----|-------7-(7)----|-------9-(9)----|
|-----2--------|-----4---4-----4-2-|-----7----------|-----9----------|
|--4-----------|-------------------|---7------------|---9------------|
|--------------|-------------------|-5--------------|-7--------------|
|--------------|-------------------|----------------|----------------|
|
|  Q  H    E E   +W                  W                W
|--------------|-------------------|----------------|----------------|
|--------------|-------------------|----------------|----------------|
|--------------|-------------------|-7--------------|-9--------------|
|-/4--2--------|-------------------|-7--------------|-9--------------|
|----------4-2-|-(2)---------------|-5--------------|-7--------------|
|--------------|-------------------|----------------|----------------|


  F#5
  Gtr III
                                        >
   W           +W                      +W            +W
|-----------|------------------------|------------|---------||
|-----------|------------------------|------------|---------||
|-----------|------------------------|------------|---------||
|--4--------|--(4)-------------------|-(4)--------|--(4)----||
|--4--------|--(4)-------------------|-(4)--------|--(4)----||
|--2--------|--(2)-------------------|-(2)--------|--(2)----||
|
| Gtr II
|                                       >
|  W           +E   E E E  Q.     E     W            +W
|-----------|------------------------|------------|---------||
|-----------|------------------------|------------|---------||
|-11--------|-(11)-11---x-11----(11)-|-11---------|-(11)----||
|-11--------|-(11)-11---x-11----(11)-|-11---------|-(11)----||
|--9--------|--(9)--9---x--9-----(9)-|--9---------|--(9)----||
|-----------|------------------------|------------|---------||


 Verse
  (F#m7)                              (D)                  (B)
  Gtrs I, II
             >                                              >
   E  E E E +H       +H..       +E     E  E E H    S  S     H..       +E
|------------------|----------------|--------------------|----------------|
|---------5-(5)----|-(5)--------(5)-|---------3----------|--4---------(4)-|
|-----2------------|----------------|-----2-----------4--|-(4)--------(4)-|
|-------4----------|----------------|-------4------4-(4)-|-(4)--------(4)-|
|------------------|----------------|--------------------|----------------|
|--2---------------|----------------|--2-----------------|----------------|
|
| Gtr III
| +W                 +W               +W                    W
|------------------|----------------|--------------------|----------------|
|------------------|----------------|--------------------|----------------|
|------------------|----------------|--------------------|----------------|
|-(4)--------------|-(4)------------|-(4)----------------|----------------|
|-(4)--------------|-(4)------------|-(4)----------------|----------------|
|-(2)--------------|-(2)------------|-(2)----------------|----------------|


    (F#m7)                            (D)                (B)
             >                                            >
    E E E E +H       +H..       +E    E E E H    S  S     H..       +E    3x
||-----------------|----------------|------------------|------------------||
||o-------5-(5)----|-(5)--------(5)-|-------3----------|--4---------(4)--o||
||----2------------|----------------|---2-----------4--|-(4)--------(4)---||
||------4----------|----------------|-----4------4-(4)-|-(4)--------(4)---||
||o----------------|----------------|------------------|-----------------o||
||--2--------------|----------------|-2----------------|------------------||


   Pre-Chorus
                                             1.                   2.
    G#5                            E5
    Gtrs II, III
    W          +W                  W          +W                   +E  H..
||-----------|-------------------|----------|-------------------||------------||
||o----------|-------------------|----------|------------------o||------------||
||-----------|-------------------|----------|-------------------||------------||
||--6--------|-(6)---------------|-2--------|-(2)---------------||-(2)--------||
||o-6--------|-(6)---------------|-2--------|-(2)--------------o||-(2)--------||
||--4--------|-(4)---------------|-0--------|-(0)---------------||-(0)--------||
|
|   Gtr IV
|   W           Q    Q   Q.    E   W           Q    Q  Q.    E      W
||-----------|-------------------|----------|-------------------||------------||
||o-9--------|--9---11--12----11-|----------|----------9----11-o||------------||
||-----------|-------------------|-9--------|--9---11-----------||------------||
||-----------|-------------------|----------|-------------------||------------||
||o----------|-------------------|----------|------------------o||------------||
||-----------|-------------------|----------|-------------------||------------||


   Chorus
    (F#m7)         (B)                 (F#m7)         (B)
    Gtr I
     Q  H    E E   +E  E E E E E E E    Q  H    E E   +E  E E E E E E E
||---------------|-----------2-------|--------------|-----------2-------|
||o----------5-4-|-(4)---4-----4-----|----------5-4-|-(4)---4-----4-----|
||------2--------|-----4---4-----4-2-|-----2--------|-----4---4-----4-2-|
||---4-----------|-------------------|--4-----------|-------------------|
||o--------------|-------------------|--------------|-------------------|
||---------------|-------------------|--------------|-------------------|
|
|   Gtr III
|    Q  H    E E   +W                   Q  H    E E   +W
||---------------|-------------------|--------------|-------------------|
||o--------------|-------------------|--------------|-------------------|
||---------------|-------------------|--------------|-------------------|
||--/4--2--------|-------------------|-/4--2--------|-------------------|
||o----------4---|-------------------|----------4---|-------------------|
||-------------2-|-(2)---------------|------------2-|-(2)---------------|


  (F#m7)         (B)                 D5               E5
   Q  H    E E   +E  E E E E E E E   E E E E +H       E E E E +H
|--------------|-----------2-------|----------------|-----------------||
|----------5-4-|-(4)---4-----4-----|-------7-(7)----|-------9-(9)----o||
|-----2--------|-----4---4-----4-2-|-----7----------|-----9-----------||
|--4-----------|-------------------|---7------------|---9-------------||
|--------------|-------------------|-5--------------|-7--------------o||
|--------------|-------------------|----------------|-----------------||
|
|  Q  H    E E   +W                  W                W
|--------------|-------------------|----------------|-----------------||
|--------------|-------------------|----------------|----------------o||
|--------------|-------------------|-7--------------|-9---------------||
|-/4--2--------|-------------------|-7--------------|-9---------------||
|----------4-2-|-(2)---------------|-5--------------|-7--------------o||
|--------------|-------------------|----------------|-----------------||


 Pre-Chorus
  G#5
  Gtrs II, III
  W                  +W
|------------------|------------------------|
|------------------|------------------------|
|------------------|------------------------|
|-6----------------|-(6)--------------------|
|-6----------------|-(6)--------------------|
|-4----------------|-(4)--------------------|
|
| Gtr IV
| H.           Q      Q     Q    Q.       E
|------------------|------------------------|
|-9----------------|--9----11---12-------11-|
|--------------8---|------------------------|
|------------------|------------------------|
|------------------|------------------------|
|------------------|------------------------|
|
| Gtr V
| e  e e e e e e e    e  e  e e  e  e  E  e
|------6---7---6---|--------6----7----11----|
|-9----------------|--9---------------------|
|----8---8---8---8-|-----8----8-----8-----8-|
|------------------|------------------------|
|------------------|------------------------|
|------------------|------------------------|


  E5
   W                 +W
|------------------|------------------------|
|------------------|------------------------|
|------------------|------------------------|
|--2---------------|-(2)--------------------|
|--2---------------|-(2)--------------------|
|--0---------------|-(0)--------------------|
|
|  W                  Q     Q   Q.       E
|------------------|------------------------|
|------------------|------------9-------11--|
|--9---------------|--9----11---------------|
|------------------|------------------------|
|------------------|------------------------|
|------------------|------------------------|
|
|  E e e e e e e e    e  e  e e e  e  E  e
|-12---6---7---6---|--------6---7----12-----|
|------------------|--9---------------------|
|----8---8---8---8-|-----8----8----8-----8--|
|------------------|------------------------|
|------------------|------------------------|
|------------------|------------------------|


  G#5
   W                  +W
|-------------------|-----------------------|
|-------------------|-----------------------|
|-------------------|-----------------------|
|--6----------------|-(6)-------------------|
|--6----------------|-(6)-------------------|
|--4----------------|-(4)-------------------|
|
|  H.           Q      Q     Q    Q.      E
|-------------------|-----------------------|
|--9----------------|--9----11---12------11-|
|---------------8---|-----------------------|
|-------------------|-----------------------|
|-------------------|-----------------------|
|-------------------|-----------------------|
|
|  E  e e e e e e e    e  e  e e  e  e e  e
|-11----6---7---6---|--------6----7----6----|
|-------------------|--9--------------------|
|-----8---8---8---8-|-----8----8-----8----8-|
|-------------------|-----------------------|
|-------------------|-----------------------|
|-------------------|-----------------------|


  E5
   W                 +E  E E E E E Q
|------------------|--------------------||
|------------------|--------------------||
|------------------|--------------------||
|--2---------------|-(2)-x-x-x-x-x-x----||
|--2---------------|-(2)-x-x-x-x-x-x----||
|--0---------------|-(0)-x-x-x-x-x-x----||
|
|  W                  W
|------------------|--------------------||
|------------------|--------------------||
|--9---------------|--------------------||
|------------------|--------------------||
|------------------|--------------------||
|------------------|--------------------||
|
|  E e e e e e e e    E  e e e e e e E
|-12---6---7---6---|-12----6---7---6----||
|------------------|--------------------||
|----8---8---8---8-|-----8---8---8------||
|------------------|--------------------||
|------------------|--------------------||
|------------------|--------------------||


 Chorus & Solo
  (F#m7)         (B)
  Gtr I
   Q  H    E E   +E  E         E     E E     E   E  E
|--------------|-----------------------2--------------|
|----------5-4-|-(4)-----------4-------------4--------|
|-----2--------|-----4---------------4-----------4--2-|
|--4-----------|--------------------------------------|
|--------------|--------------------------------------|
|--------------|--------------------------------------|
|
| Gtr II
|  Q  H    E E   +W
|--------------|--------------------------------------|
|--------------|--------------------------------------|
|--------------|--------------------------------------|
|-/4--2--------|--------------------------------------|
|----------4---|--------------------------------------|
|------------2-|-(2)----------------------------------|
|
| Gtr III
|                    PM------------|             PM-|
|                    |-3-| |--3--|
|  W              E  T T T S S   S S e E    +E   E  E
|--------------|--------------------------------------|
|--------------|-----------------------7b9==(7)r(7)---|
|--------------|--------------------------------------|
|--------------|------------------------------------2-|
|--------------|---------2-------2---2-----------4----|
|--------------|-----2h4---2-4-----4------------------|


  (F#m7)         (B)
   Q  H    E E   +E  E         E     E E     E   E  E
|--------------|-----------------------2----------------|
|----------5-4-|-(4)-----------4-------------4----------|
|-----2--------|-----4---------------4-----------4--2---|
|--4-----------|----------------------------------------|
|--------------|----------------------------------------|
|--------------|----------------------------------------|
|
|  Q  H    E E   +W
|--------------|----------------------------------------|
|--------------|----------------------------------------|
|--------------|----------------------------------------|
|-/4--2--------|----------------------------------------|
|----------4---|----------------------------------------|
|------------2-|-(2)------------------------------------|
|
|                    PM------------|             PM-|
|                    |-3-| |--3--|
|  W              E  T T T S S   S S e E    +E   E  E
|--------------|----------------------------------------|
|--------------|-----------------------7b9==(7)r(7)-----|
|--------------|----------------------------------------|
|--------------|------------------------------------2---|
|--------------|---------2-------2---2-----------4------|
|--------------|-----2h4---2-4-----4--------------------|


  (F#m7)         (B)                 D5               E5
   Q  H    E E   +E  E E E E E E E   E E E E +H       E E E E +H
|--------------|-----------2-------|----------------|----------------|
|----------5-4-|-(4)---4-----4-----|-------7-(7)----|-------9-(9)----|
|-----2--------|-----4---4-----4-2-|-----7----------|-----9----------|
|--4-----------|-------------------|---7------------|---9------------|
|--------------|-------------------|-5--------------|-7--------------|
|--------------|-------------------|----------------|----------------|
|
|  Q  H    E E   +W                  W                W
|--------------|-------------------|----------------|----------------|
|--------------|-------------------|----------------|----------------|
|--------------|-------------------|-7--------------|-9--------------|
|-/4--2--------|-------------------|-7--------------|-9--------------|
|----------4-2-|-(2)---------------|-5--------------|-7--------------|
|--------------|-------------------|----------------|----------------|


  (F#m7)         (B)
   Q  H    E E   +E  E         E     E  E      E   E  E
|--------------|------------------------2---------------|
|----------5-4-|-(4)-----------4---------------4--------|
|-----2--------|-----4---------------4-------------4--2-|
|--4-----------|----------------------------------------|
|--------------|----------------------------------------|
|--------------|----------------------------------------|
|
|  Q  H    E E   +W
|--------------|----------------------------------------|
|--------------|----------------------------------------|
|--------------|----------------------------------------|
|-/4--2--------|----------------------------------------|
|----------4---|----------------------------------------|
|------------2-|-(2)------------------------------------|
|
| Gtr III
|                    PM------------|               PM-|
|                    |-3-| |--3--|
|  W              E  T T T S S   S S e  E     +E   e  E
|--------------|----------------------------------------|
|--------------|-----------------------[7]b9==(7)r(7)---|
|--------------|----------------------------------------|
|--------------|--------------------------------------2-|
|--------------|---------2-------2---2-------------4----|
|--------------|-----2h4---2-4-----4--------------------|


  (F#m7)                      (B)
   Q          H         E E   +E  E E E E E  E E
|---------------------------|-----------2---------|
|-----------------------5-4-|-(4)---4-----4-------|
|-------------2-------------|-----4---4------4-2--|
|--4------------------------|---------------------|
|---------------------------|---------------------|
|---------------------------|---------------------|
|
|  Q          H         E E   +W
|---------------------------|---------------------|
|---------------------------|---------------------|
|---------------------------|---------------------|
|-/4----------2-------------|---------------------|
|-----------------------4---|---------------------|
|-------------------------2-|-(2)-----------------|
|
|  E     +E   E   Q   E E E   +E  Q   E E Q.
|---------------------------|---------------------|
|---------------------------|---------------------|
|-[4]b6==(4)r[4]-[4]--2-4-2-|-(2)-----------------|
|---------------------------|-----4---4-2h4-------|
|---------------------------|---------------------|
|---------------------------|---------------------|


  (F#m7)         (B)
   Q  H    E E   +E   E     E  E E  E    E  E
|--------------|-----------------2-------------|
|----------5-4-|-(4)--------4-------4----------|
|-----2--------|------4--------4---------4--2--|
|--4-----------|-------------------------------|
|--------------|-------------------------------|
|--------------|-------------------------------|
|
|  Q  H    E E   +W
|--------------|-------------------------------|
|--------------|-------------------------------|
|--------------|-------------------------------|
|-/4--2--------|-------------------------------|
|----------4-2-|-(2)---------------------------|
|--------------|-------------------------------|
|
|  Q  H    E E   +E   E    +E  E E  Q       E
|--------------|-------------------------------|
|--7--5--------|-----[7]b9r(7)-5-7-[7]b9---[5]-|
|----------6-4-|-(4)---------------------------|
|--------------|-------------------------------|
|--------------|-------------------------------|
|--------------|-------------------------------|


  D                          E5
   E     E   E   E  +H       E E E E +H
|--------------------------|------------------------------||
|----------------7--(7)----|-------9-(9)------------------||
|------------7-------------|-----9------------------------||
|--------7-----------------|---9--------------------------||
|--5-----------------------|-7----------------------------||
|--------------------------|------------------------------||
|
|  W                         W
|--------------------------|------------------------------||
|--------------------------|------------------------------||
|--7-----------------------|-9----------------------------||
|--7-----------------------|-9----------------------------||
|--5-----------------------|-7----------------------------||
|--------------------------|------------------------------||
|
|                    ~~~
|  E    +E   E   E   H       H        E   E    +E    E
|--------------------------|------------------------------||
|-[7]b9r(7)-[5]-[7]-[5]----|-------------[5]b7r(5)-([5])--||
|--------------------------|------------------------------||
|--------------------------|------------------------------||
|--------------------------|------------------------------||
|--------------------------|------------------------------||


 Outro
  F#5
   E E E E +H        +H..             +E
|-----------------|-----------------------|
|--------5-(5)----|--(5)--------------(5)-|
|----2------------|-----------------------|
|------4----------|-----------------------|
|-----------------|-----------------------|
|--2--------------|-----------------------|
|
|  W                 +E    E E E  H
|-----------------|-----------------------|
|-----------------|-----------------------|
|-11--------------|-(11)--11---x-11-------|
|-11--------------|-(11)--11---x-11-------|
|--9--------------|--(9)---9---x--9-------|
|-----------------|-----------------------|


   E E E Q.   E E    +H..             +E
|-----------------|------------------------|
|--------5------4-|--(4)--------------(4)--|
|----2------------|------------------------|
|------4------4---|------------------------|
|-----------------|------------------------|
|--2--------------|------------------------|
|
|  W                 +E    E E E  H
|-----------------|------------------------|
|-----------------|------------------------|
|-11--------------|-(11)--11---x-11--------|
|-11--------------|-(11)--11---x-11--------|
|--9--------------|--(9)---9---x--9--------|
|-----------------|------------------------|


    E  E   E   E +H            +H..              +E
|---------------------------|-------------------------|
|--------------5-(5)--------|--(5)---------------(5)--|
|------2--------------------|-------------------------|
|----------4----------------|-------------------------|
|---------------------------|-------------------------|
|---2-----------------------|-------------------------|
|
|   W                          +E    E E E  H
|---------------------------|-------------------------|
|---------------------------|-------------------------|
|--11-----------------------|-(11)--11---x-11---------|
|--11-----------------------|-(11)--11---x-11---------|
|---9-----------------------|--(9)---9---x--9---------|
|---------------------------|-------------------------|
|
| Gtr III
|   E  E  +E   E  E   +Q.      +H..              +E
|----------------12--(12)---|-(12)--------------(12)\-|
|-----10-(10)---------------|-------------------------|
|-/11---------11------------|-------------------------|
|---------------------------|-------------------------|
|---------------------------|-------------------------|
|---------------------------|-------------------------|


    E  E E  Q.          E  E    +H..              +E
|----------------------------|--------------------------|
|-----------5--------------4-|--(4)---------------(4)---|
|------2---------------------|--------------------------|
|--------4--------------4----|--------------------------|
|----------------------------|--------------------------|
|---2------------------------|--------------------------|
|
|   W                           +E    E E E  H
|----------------------------|--------------------------|
|----------------------------|--------------------------|
|--11------------------------|-(11)--11---x-11----------|
|--11------------------------|-(11)--11---x-11----------|
|---9------------------------|--(9)---9---x--9----------|
|----------------------------|--------------------------|
|
|                       T
|   E  E E  E   E  +E   E  E    +H..              +E
|--------------12-(12)-17p11-|-(11)--------------(11)\--|
|-----10---10----------------|--------------------------|
|-/11------------------------|--------------------------|
|----------------------------|--------------------------|
|----------------------------|--------------------------|
|----------------------------|--------------------------|


      E  E E  E +H            +H..              +E
||-------------------------|-------------------------|
||o-----------5-(5)--------|--(5)---------------(5)--|
||-------2-----------------|-------------------------|
||---------4---------------|-------------------------|
||o------------------------|-------------------------|
||----2--------------------|-------------------------|
|
|     W                       +E    E E E  H
||-------------------------|-------------------------|
||o------------------------|-------------------------|
||---11--------------------|-(11)--11---x-11---------|
||---11--------------------|-(11)--11---x-11---------|
||o---9--------------------|--(9)---9---x--9---------|
||-------------------------|-------------------------|
|
|     E  E E  E  E   +Q.      +H..              +E
||--------------12--(12)---|-(12)--------------(12)\-|
||o-----10-----------------|-------------------------|
||--/11------11------------|-------------------------|
||-------------------------|-------------------------|
||o------------------------|-------------------------|
||-------------------------|-------------------------|


    E  E E  Q.          E  E    +H..              +E
|----------------------------|--------------------------||
|-----------5--------------4-|--(4)---------------(4)--o||
|------2---------------------|--------------------------||
|--------4--------------4----|--------------------------||
|----------------------------|-------------------------o||
|---2------------------------|--------------------------||
|
|   W                           +E    E E E  H
|----------------------------|--------------------------||
|----------------------------|-------------------------o||
|--11------------------------|-(11)--11---x-11----------||
|--11------------------------|-(11)--11---x-11----------||
|---9------------------------|--(9)---9---x--9---------o||
|----------------------------|--------------------------||
|
|   E  E E  E   E  +E   E  E    +H..              +E
|--------------12-(12)----11-|-(11)--------------(11)\--||
|-----10---------------10----|-------------------------o||
|-/11------11----------------|--------------------------||
|----------------------------|--------------------------||
|----------------------------|-------------------------o||
|----------------------------|--------------------------||


  F#5/C#                          N.C.
   E E E E +H        +W           +W           +W
|-----------------|-------------|------------|--------*|
|--------5-(5)----|--(5)--------|-(5)--------|-(5)----*|
|----2------------|-------------|------------|--------*|
|------4----------|-------------|------------|--------*|
|-----------------|-------------|------------|--------*|
|--2--------------|-------------|------------|--------*|
|
|  >
|  W                 +W            W            W
|-----------------|-------------|------------|--------*|
|-----------------|-------------|------------|--------*|
|-----------------|-------------|------------|--------*|
|-11--------------|-(11)--------|------------|--------*|
|--9--------------|--(9)--------|------------|--------*|
|--9--------------|--(9)--------|------------|--------*|


Duration Legend
---------------
W - whole; H - half; Q - quarter; E - 8th; S - 16th; T - 32nd; X - 64th; a - acciaccatura
+ - note tied to previous; . - note dotted; .. - note double dotted
Uncapitalized letters represent notes that are staccato (1/2 duration)
Irregular groupings are notated above the duration line
Duration letters will always appear directly above the note/fret number it represents the
duration for.  Duration letters with no fret number below them represent rests.  Multi-
bar rests are notated in the form Wxn, where n is the number of bars to rest for.  Low
melody durations appear below the staff

Tablature Legend
----------------
 h   - hammer-on
 p   - pull-off
 b   - bend
 pb  - pre-bend
 r   - bend release (if no number after the r, then release immediately)
 /\  - slide into or out of (from/to "nowhere")
 s   - legato slide
 S   - shift slide
  - natural harmonic
[n]  - artificial harmonic
n(n) - tapped harmonic
 ~   - vibrato
 tr  - trill
 T   - tap
 TP  - trem. picking
 PM  - palm muting
\n/  - tremolo bar dip; n = amount to dip
 \n  - tremolo bar down
 n/  - tremolo bar up
/n\  - tremolo bar inverted dip
 =   - hold bend; also acts as connecting device for hammers/pulls
 <>  - volume swell (louder/softer)
 x   - on rhythm slash represents muted slash
 o   - on rhythm slash represents single note slash

Misc Legend
-----------
 |  - bar
||  - double bar
||o - repeat start
o|| - repeat end
*|  - double bar (ending)
 :  - bar (freetime)
 $  - Segno
 &  - Coda
Tempo markers -  = BPM(8/16=s8/s16), where s8 = swing 8ths, s16 = swing 16ths





Comments


Popular 69 Eyes tabs & chords
The Chair 3 Bass Tabs
Feel Berlin Chords
Wasting The Dawn Chords
Dance D Amour Tabs
Dance D Amour Intro 1 Tabs
From Dusk Till Dawn 1 Tabs
Gothic Girl Tabs
Perfect Skin Tabs
Sleeping With Lions 1 Tabs
Brandon Lee Ukulele


Song lyrics



↑ Back to top | Tablatures and chords are parodies/interpretations of the original songs. You may use it for private study, scholarship, research or language learning purposes only
© 2014 AZChords.com Contact us | Privacy policy | DMCA | Add/correct tabs | Request tabs | Top 50 tabs