>
 >
Gothic Girl 1

Gothic Girl 1 Bass Tabs

69 Eyes - Gothic Girl 1 chords, tabs, tablatures, lyrics

Guitar lessons | Add/correct | Request | Top 50 tabs Artists:  A B C D E F G H I J K L M N O P Q R S T U V W X Y Z 0-9

Gothic Girl 1 Bass Tabs – 69 Eyes

CD, Sheet music, Poster

Do you like Gothic Girl 1? Share with your friends now
Bass TabsBass Tabs v2TabsTabs v2
#------------------------------------------------------------------------------##

                             GOTHIC GIRL (Bassline)
                           As recorded by The 69 Eyes
                        (From the 2000 Album BLESSED BE)

Words by Jyrki

Music by Bazie
Arranged by The 69 Eyes

Gtr I (Db Ab Db Gb) - 'Bass'
Gtr II (Eb Ab Db Gb) - 'Untitled'

 Intro
  Q=127
 4/4
  Gtr I
  Wx4
|--------|
|--------|
|--------|
|--------|


  E E E E E E E E   E E E E E E E E   E E E E E E E E   E E E E E E E E
|-----------------|-----------------|-----------------|------------------|
|-----------------|-----------------|-----------------|------------------|
|-----------------|-----------------|-----------------|------------------|
|-4-4-4-4-4-4-4-4-|-4-4-4-4-4-4-4-4-|-4-4-4-4-4-4-4-4-|-4-4-4-4-4-4-4-4--|


    E E E E E E E E   E E E E E E E E   E E E E E E E E   E E E E E E E E
||------------------|-----------------|-----------------|------------------||
||o-----------------|-----------------|-----------------|-----------------o||
||o-----------------|-2-2-2-2-2-2-2-2-|-----------------|-2-2-2-2-2-2-2-2-o||
||--4-4-4-4-4-4-4-4-|-----------------|-4-4-4-4-4-4-4-4-|------------------||


   Verse
    E  E E E E E E E   E E E E E E E E   E  E E E E E E E   E  E E E E E E E  4x
||-------------------|-----------------|------------------|-------------------||
||o------------------|-----------------|------------------|------------------o||
||o------------------|-----------------|------------------|-2--2-2-2-2-2-2-2-o||
||--4--4-4-4-4-4-4-4-|-4-4-4-4-4-4-4-4-|-0--0-0-0-0-0-0-0-|-------------------||
|
|   Gtr II
|   Q.     E H         W                 Q.     E H         Q.     E H        4x
||-------------------|-----------------|------------------|-------------------||
||o-4----------------|-----------------|------------------|------------------o||
||o------------------|-----------------|-5----------------|-6----------------o||
||-------------------|-----------------|------------------|-------------------||


   Pre-Chorus
    E  E E E E E E E   E E E E E E E E
||-------------------|-----------------|
||o------------------|-----------------|
||o------------------|-----------------|
||--6--6-6-6-6-6-6-6-|-6-6-6-6-6-6-6-6-|
|
|   Q.     E H         W
||-------------------|-----------------|
||o------------------|-----------------|
||o-6----------------|-----------------|
||-------------------|-----------------|


                    1.                  2.
  E  E E E E E E E   E E E E E E E E     E H..
|------------------|------------------||----------||
|------------------|-----------------o||----------||
|------------------|-----------------o||----------||
|-2--2-2-2-2-2-2-2-|-2-2-2-2-2-2-2-2--||-2--------||
|
| Q.     E H         W                   W
|------------------|------------------||----------||
|------------------|-----------------o||----------||
|-7----------------|-----------------o||----------||
|------------------|------------------||----------||


 Chorus
  E  E E E E E E E   E E  E  E E E E E   E  E E E E E E E   E E  E  E E E E E
|------------------|-------------------|------------------|--------------------|
|------------------|-------------------|------------------|--------------------|
|------------------|-2-2--2--2-2-2-2-2-|------------------|-2-2--2--2-2-2-2-2--|
|-4--4-4-4-4-4-4-4-|-------------------|-4--4-4-4-4-4-4-4-|--------------------|
|
|                         >                                      >
| Q.     E H         Q   +E  E H         Q.     E H         Q   +E  E H
|------------------|-------------------|------------------|--------------------|
|------------------|-------------------|------------------|--------------------|
|-4----------------|-9---(9)-----------|-4----------------|-9---(9)------------|
|------------------|-------------------|------------------|--------------------|


  E  E E E E E E E   E E  E  E E E E E   E  E E E E E E E   E  E E E E E E E
|------------------|-------------------|------------------|-------------------|
|------------------|-------------------|------------------|-------------------|
|------------------|-2-2--2--2-2-2-2-2-|------------------|-------------------|
|-4--4-4-4-4-4-4-4-|-------------------|-0--0-0-0-0-0-0-0-|-2--2-2-2-2-2-2-2--|
|
|                         >
| Q.     E H         Q   +E  E H         Q.     E H         Q.     E H
|------------------|-------------------|------------------|-------------------|
|------------------|-------------------|------------------|-------------------|
|-4----------------|-9---(9)-----------|-5----------------|-7-----------------|
|------------------|-------------------|------------------|-------------------|


  E  E E E E E E E   E E E E E E E E   E E E E E E E E   E E E E E E E E
|------------------|-----------------|-----------------|------------------||
|------------------|-----------------|-----------------|------------------||
|------------------|-----------------|-----------------|------------------||
|-4--4-4-4-4-4-4-4-|-4-4-4-4-4-4-4-4-|-4-4-4-4-4-4-4-4-|-4-4-4-4-4-4-4-4--||
|
| Q.     E H         W                 W                 W
|------------------|-----------------|-----------------|------------------||
|------------------|-----------------|-----------------|------------------||
|-4----------------|-----------------|-----------------|------------------||
|------------------|-----------------|-----------------|------------------||


   Verse
    E  E E E E E E E   E E E E E E E E   E  E E E E E E E   E  E E E E E E E  4x
||-------------------|-----------------|------------------|-------------------||
||o------------------|-----------------|------------------|------------------o||
||o------------------|-----------------|------------------|-2--2-2-2-2-2-2-2-o||
||--4--4-4-4-4-4-4-4-|-4-4-4-4-4-4-4-4-|-0--0-0-0-0-0-0-0-|-------------------||
|
|   Q.     E H         W                 Q.     E H         Q.     E H        4x
||-------------------|-----------------|------------------|-------------------||
||o-4----------------|-----------------|------------------|------------------o||
||o------------------|-----------------|-5----------------|-6----------------o||
||-------------------|-----------------|------------------|-------------------||


   Pre-Chorus
    E  E E E E E E E   E E E E E E E E
||-------------------|-----------------|
||o------------------|-----------------|
||o------------------|-----------------|
||--6--6-6-6-6-6-6-6-|-6-6-6-6-6-6-6-6-|
|
|   Q.     E H         W
||-------------------|-----------------|
||o------------------|-----------------|
||o-6----------------|-----------------|
||-------------------|-----------------|


                    1.                  2.
  E  E E E E E E E   E E E E E E E E     E H..
|------------------|------------------||----------||
|------------------|-----------------o||----------||
|------------------|-----------------o||----------||
|-2--2-2-2-2-2-2-2-|-2-2-2-2-2-2-2-2--||-2--------||
|
| Q.     E H         W                   W
|------------------|------------------||----------||
|------------------|-----------------o||----------||
|-7----------------|-----------------o||----------||
|------------------|------------------||----------||


   Chorus
    E  E E E E E E E   E E  E  E E E E E
||-------------------|-------------------|
||o------------------|-------------------|
||o------------------|-2-2--2--2-2-2-2-2-|
||--4--4-4-4-4-4-4-4-|-------------------|
|
|                           >
|   Q.     E H         Q   +E  E H
||-------------------|-------------------|
||o------------------|-------------------|
||o-4----------------|-9---(9)-----------|
||-------------------|-------------------|


  E  E E E E E E E   E E  E  E E E E E
|------------------|-------------------|
|------------------|-------------------|
|------------------|-2-2--2--2-2-2-2-2-|
|-4--4-4-4-4-4-4-4-|-------------------|
|
|                         >
| Q.     E H         Q   +E  E H
|------------------|-------------------|
|------------------|-------------------|
|-4----------------|-9---(9)-----------|
|------------------|-------------------|


  E  E E E E E E E   E E  E  E E E E E
|------------------|-------------------|
|------------------|-------------------|
|------------------|-2-2--2--2-2-2-2-2-|
|-4--4-4-4-4-4-4-4-|-------------------|
|
|                         >
| Q.     E H         Q   +E  E H
|------------------|-------------------|
|------------------|-------------------|
|-4----------------|-9---(9)-----------|
|------------------|-------------------|


  E  E E E E E E E   E  E E E E E E E
|------------------|--------------------||
|------------------|-------------------o||
|------------------|-------------------o||
|-0--0-0-0-0-0-0-0-|-2--2-2-2-2-2-2-2---||
|
| Q.     E H         Q.     E H
|------------------|--------------------||
|------------------|-------------------o||
|-5----------------|-7-----------------o||
|------------------|--------------------||


   Pre-Chorus
    E  E E E E E E E   E E E E E E E E   E  E E E E E E E   E E E E E E E E
||-------------------|-----------------|------------------|------------------||
||o------------------|-----------------|------------------|-----------------o||
||o------------------|-----------------|------------------|-----------------o||
||--6--6-6-6-6-6-6-6-|-6-6-6-6-6-6-6-6-|-2--2-2-2-2-2-2-2-|-2-2-2-2-2-2-2-2--||
|
|   Q.     E H         W                 Q.     E H         W
||-------------------|-----------------|------------------|------------------||
||o------------------|-----------------|------------------|-----------------o||
||o-6----------------|-----------------|-7----------------|-----------------o||
||-------------------|-----------------|------------------|------------------||


   Chorus & Solo
    E  E E E E E E E   E E  E  E E E E E
||-------------------|-------------------|
||o------------------|-------------------|
||o------------------|-2-2--2--2-2-2-2-2-|
||--4--4-4-4-4-4-4-4-|-------------------|
|
|                           >
|   Q.     E H         Q   +E  E H
||-------------------|-------------------|
||o------------------|-------------------|
||o-4----------------|-9---(9)-----------|
||-------------------|-------------------|


  E  E E E E E E E   E E  E  E E E E E
|------------------|-------------------|
|------------------|-------------------|
|------------------|-2-2--2--2-2-2-2-2-|
|-4--4-4-4-4-4-4-4-|-------------------|
|
|                         >
| Q.     E H         Q   +E  E H
|------------------|-------------------|
|------------------|-------------------|
|-4----------------|-9---(9)-----------|
|------------------|-------------------|


  E  E E E E E E E   E E  E  E E E E E
|------------------|-------------------|
|------------------|-------------------|
|------------------|-2-2--2--2-2-2-2-2-|
|-4--4-4-4-4-4-4-4-|-------------------|
|
|                         >
| Q.     E H         Q   +E  E H
|------------------|-------------------|
|------------------|-------------------|
|-4----------------|-9---(9)-----------|
|------------------|-------------------|


  E  E E E E E E E   E  E E E E E E E
|------------------|--------------------||
|------------------|-------------------o||
|------------------|-------------------o||
|-0--0-0-0-0-0-0-0-|-2--2-2-2-2-2-2-2---||
|
| Q.     E H         Q.     E H
|------------------|--------------------||
|------------------|-------------------o||
|-5----------------|-7-----------------o||
|------------------|--------------------||


   Outro
    E E E E E E E E   E E E E E E E E   E E E E E E E E   E E E E E E E E  4x
||------------------|-----------------|-----------------|------------------||
||o-----------------|-----------------|-----------------|-----------------o||
||o-----------------|-----------------|-----------------|-----------------o||
||--4-4-4-4-4-4-4-4-|-4-4-4-4-4-4-4-4-|-4-4-4-4-4-4-4-4-|-4-4-4-4-4-4-4-4--||


              >
  W          +W           +W           +W
|----------|------------|------------|--------*|
|----------|------------|------------|--------*|
|----------|------------|------------|--------*|
|-4--------|-(4)--------|-(4)--------|-(4)----*|
|
| Gtr II
| >
| W           W            W            W
|----------|------------|------------|--------*|
|----------|------------|------------|--------*|
|-9--------|------------|------------|--------*|
|----------|------------|------------|--------*|


Duration Legend
---------------
W - whole; H - half; Q - quarter; E - 8th; S - 16th; T - 32nd; X - 64th; a - acciaccatura
+ - note tied to previous; . - note dotted; .. - note double dotted
Uncapitalized letters represent notes that are staccato (1/2 duration)
Irregular groupings are notated above the duration line
Duration letters will always appear directly above the note/fret number it represents the
duration for.  Duration letters with no fret number below them represent rests.  Multi-
bar rests are notated in the form Wxn, where n is the number of bars to rest for.  Low
melody durations appear below the staff

Tablature Legend
----------------
 h   - hammer-on
 p   - pull-off
 b   - bend
 pb  - pre-bend
 r   - bend release (if no number after the r, then release immediately)
 /\  - slide into or out of (from/to "nowhere")
 s   - legato slide
 S   - shift slide
  - natural harmonic
[n]  - artificial harmonic
n(n) - tapped harmonic
 ~   - vibrato
 tr  - trill
 T   - tap
 TP  - trem. picking
 PM  - palm muting
\n/  - tremolo bar dip; n = amount to dip
 \n  - tremolo bar down
 n/  - tremolo bar up
/n\  - tremolo bar inverted dip
 =   - hold bend; also acts as connecting device for hammers/pulls
 <>  - volume swell (louder/softer)
 x   - on rhythm slash represents muted slash
 o   - on rhythm slash represents single note slash

Misc Legend
-----------
 |  - bar
||  - double bar
||o - repeat start
o|| - repeat end
*|  - double bar (ending)
 :  - bar (freetime)
 $  - Segno
 &  - Coda
Tempo markers -  = BPM(8/16=s8/s16), where s8 = swing 8ths, s16 = swing 16ths





Comments


Popular 69 Eyes tabs & chords
Brandon Lee 1 Bass Tabs
The Chair Bass Tabs
Dead N' Gone Tabs
Devils 1 Tabs
From Dusk Till Dawn 2 Tabs
Ghost Tabs
Hevioso Tabs
Rocker Intro Tabs
Still Waters Run Deep Tabs
Wasting The Dawn (Intro) Tabs


Song lyrics



↑ Back to top | Tablatures and chords are parodies/interpretations of the original songs. You may use it for private study, scholarship, research or language learning purposes only
© 2014 AZChords.com Contact us | Privacy policy | DMCA | Add/correct tabs | Request tabs | Top 50 tabs