» » »

Gothic Girl Bass tabs (ver.1)

Artists:  A B C D E F G H I J K L M N O P Q R S T U V W X Y Z # 

Gothic Girl Bass tabs (ver.1)

69 Eyes
Rating:
5/5 (1 vote)

Hard to play? Try these video lessons and learn fast.
                THE 69 EYES
GOTHIC GIRL


TUNED NORMAL (EADG)
(NOTE: some of the chords are played an octave lower)

x = mute

INTRO
1/2			2/2
|-----------------|	|---------------------------------|
|-----------------|	|---------------------------------|
|-----------------|	|-----------------1-1-1-1-1-1-1-1-|
|-1-1-1-1-1-1-1-1-| x4	|-1-1-1-1-1-1-1-1-----------------| x4

VERSE 1/2
|-----------------------------------------------------------------|
|-----------------------------------------------------------------|
|-----------------------------------------------------------------|
|-1-1-1-1-1-1-1-1-1-1-1-1-1-1-1-1-5-5-5-5-5-5-5-5-6-6-6-6-6-6-6-6-| x4

VERSE 2/2
|-----------------------------------------------------------------
|-----------------------------------------------------------------
|---------------------------------6-6-6-6-6-6-6-6-6-6-6-6-6-6-6-6-
|-3-3-3-3-3-3-3-3-3-3-3-3-3-3-3-3---------------------------------

---------------------------------------------------|
---------------------------------------------------|
---------------------------------6-6-6-6-6-6-6-6-x-|
-3-3-3-3-3-3-3-3-3-3-3-3-3-3-3-3-------------------|

CHORUS
|---------------------------------|	|---------------------------------|
|---------------------------------|	|---------------------------------|
|-----------------1-1-1-1-1-1-1-1-|	|-4-4-4-4-4-4-4-4-6-6-6-6-6-6-6-6-|
|-1-1-1-1-1-1-1-1-----------------| x3	|---------------------------------|

INTRO 1/2
VERSE
CHORUS x2
VERSE 2/2
CHORUS x2
INTRO 1/2 (repeat til its over)
            
Hard to play? Try these video lessons and learn fast. | Correct




comments powered by Disqus
↑ Back to top | Tablatures and chords are parodies/interpretations of the original songs. You may use it for private study, scholarship, research or language learning purposes only