>
 >
From Dusk Till Dawn 2

From Dusk Till Dawn 2 Guitar Tabs

69 Eyes - From Dusk Till Dawn 2 chords, tabs, tablatures, lyrics

Guitar lessons | Add/correct | Request | Top 50 tabs Artists:  A B C D E F G H I J K L M N O P Q R S T U V W X Y Z 0-9

From Dusk Till Dawn 2 Guitar Tabs – 69 Eyes

CD, Sheet music, Poster

Do you like From Dusk Till Dawn 2? Share with your friends now
TabsTabs v2Tabs v3
Standard tunning. EADGBe. I am putting the rhythm guitar, i will post the lead andd
bass later and sorry if bass is off im a guitarist. *Side Note: timing is not
included in this tab. I know that this is right though.

*Itro- Distortion                  [  tab key  ]
|--------------------------------------------------------------------------------|
| ~ hold                                                                         |
| X mute                                                                         |
| \ slide                                                                        |
|--------------------------------------------------------------------------------|

                                        4/4

e-||-------------------------|-------------------------|
B-||-------------------------|-------------------------|
G-||-------------------------|-------------------------|
D-||-----------4----X--------|-------------------------|
A-||--4-----X--2----X--2-----|---X--5--5------5~~~~~~~-|
E-||--6-----X----------0-----|---X--7--7------7~~~~~~~-|

e-||-------------------------|-------------------------|
B-||-------------------------|-------------------------|
G-||-------------------------|-------------------------|
D-||-----------4----X--------|-------------------------|
A-||--4-----X--2----X--2-----|---X--5--5------5~~~~~~~-|
E-||--6-----X----------0-----|---X--7--7------7~~~~~~~-|

e-||-------------------------|-------------------------|
B-||-------------------------|-------------------------|
G-||-------------------------|-------------------------|
D-||-----------4----X--------|-------------------------|
A-||--4-----X--2----X--2-----|---X--5--5------5~~~~~~~-|
E-||--6-----X----------0-----|---X--7--7------7~~~~~~~-|

e-||-------------------------|-------------------------|
B-||-------------------------|-------------------------|
G-||-------------------------|-------------------------|
D-||-----------4----X--------|-------------------------|
A-||--4-----X--2----X--2-----|---X--5--5------5~~~~~~~-|
E-||--6-----X----------0-----|---X--7--7------7~~~~~~~-|

e-||-------------------------|-------------------------|
B-||-------------------------|-------------------------|
G-||-------------------------|-------------------------|
D-||-----------4----X--------|-------------------------|
A-||--4-----X--2----X--2-----|---X--5--5------5~~~~~~~-|
E-||--6-----X----------0-----|---X--7--7------7~~~~~~~-|

e-||-------------------------|-------------------------|
B-||-------------------------|-------------------------|
G-||-------------------------|-------------------------|
D-||-------------------------|-------------------------|
A-||---4~~~--2~~~--5~~~~~~~~~|~~~~~~~~~~~~~~~~~~~~~~~~~|
E-||---6~~~--0~~~--5~~~~~~~~~|~~~~~~~~~~~~~~~~~~~~~~~~~|

e-||-------------------------|-------------------------|
B-||-------------------------|-------------------------|
G-||-------------------------|-------------------------|
D-||-------------------------|-------------------------|
A-||--2--2--2--2--2--2--2--2-|--5--5--5--5--5--5--5--5-|
E-||--4--4--4--4--4--4--4--4-|--7--7--7--7--7--7--7--7-|

e-||-------------------------|-------------------------|
B-||-------------------------|-------------------------|
G-||-------------------------|-------------------------|
D-||-------------------------|-------------------------|
A-||--5--5--5--5--5--5--5--5-|----3~~~~3~~~~3~~~~3~~~~-|
E-||--5--5--5--5--5--5--5--5-|----5~~~~5~~~~5~~~~5~~~~-|

e-||-------------------------|-------------------------|
B-||-------------------------|-------------------------|
G-||-------------------------|-------------------------|
D-||-------------------------|-------------------------|
A-||--2--2--2--2--2--2--2--2-|--5--5--5--5--5--5--5--5-|
E-||--4--4--4--4--4--4--4--4-|--5--5--5--5--5--5--5--5-|

e-||-------------------------|-------------------------|
B-||-------------------------|-------------------------|
G-||-------------------------|-------------------------|
D-||--2----------------------|--2----------------------|
A-||--2----------------------|--2-------------3--------|
E-||--0----------------------|--0--------0----1--------|

e-||-------------------------|-------------------------|
B-||-------------------------|-------------------------|
G-||-------------------------|-------------------------|
D-||-------------------------|-------------------------|
A-||--2--2--2--2--2--2--2--2-|--5--5--5--5--5--5--5--5-|
E-||--4--4--4--4--4--4--4--4-|--7--7--7--7--7--7--7--7-|

e-||-------------------------|-------------------------|
B-||-------------------------|-------------------------|
G-||-------------------------|-------------------------|
D-||-------------------------|-------------------------|
A-||--5--5--5--5--5--5--5--5-|----3~~~~3~~~~3~~~~3~~~~-|
E-||--5--5--5--5--5--5--5--5-|----5~~~~5~~~~5~~~~5~~~~-|

e-||-------------------------|-------------------------|
B-||-------------------------|-------------------------|
G-||-------------------------|-------------------------|
D-||-------------------------|-------------------------|
A-||--2--2--2--2--2--2--2--2-|--5--5--5--5--5--5--5--5-|
E-||--4--4--4--4--4--4--4--4-|--5--5--5--5--5--5--5--5-|

e-||-------------------------|-------------------------|
B-||-------------------------|-------------------------|
G-||-------------------------|-------------------------|
D-||--2----------------------|--2----------------------|
A-||--2----------------------|--2----------------------|
E-||--0----------------------|--0----------------------|

e-||-------------------------|-------------------------|
B-||-------------------------|-------------------------|
G-||-------------------------|-------------------------|
D-||-------------------------|-------------------------|
A-||--4--4--4--4--4--4--4--4-|--4--4--4--4--4--4--4--4-|
E-||--6--6--6--6--6--6--6--6-|--6--6--6--6--6--6--6--6-|

e-||-------------------------|-------------------------|
B-||-------------------------|-------------------------|
G-||-------------------------|-------------------------|
D-||-------------------------|-------------------------|
A-||--7--7--7--7--7--7--7--7-|--7--7--7--7--7--7--7--7-|
E-||--9--9--9--9--9--9--9--9-|--9--9--9--9--9--9--9--9-|

e-||-------------------------|-------------------------|
B-||-------------------------|-------------------------|
G-||-------------------------|-------------------------|
D-||--6--6--6--6--6--6--6--6-|--6--6--6--6--6--6--6--6-|
A-||--4--4--4--4--4--4--4--4-|--4--4--4--4--4--4--4--4-|
E-||--4--4--4--4--4--4--4--4-|--4--4--4--4--4--4--4--4-|

e-||-------------------------|-------------------------|
B-||-------------------------|-------------------------|
G-||-------------------------|-------------------------|
D-||--9--9--9--9--9--9--9--9-|-11-11-11-11-11-11-11-11-|
A-||--7--7--7--7--7--7--7--7-|--9--9--9--9--9--9--9--9-|
E-||--7--7--7--7--7--7--7--7-|--9--9--9--9--9--9--9--9-|

e-||-------------------------|-------------------------|
B-||-------------------------|-------------------------|
G-||-------------------------|-------------------------|
D-||-------------------------|-------------------------|
A-||--4--4--4--4--4--4--4--4-|--4--4--4--4--4--4--4--4-|
E-||--6--6--6--6--6--6--6--6-|--6--6--6--6--6--6--6--6-|

e-||-------------------------|-------------------------|
B-||-------------------------|-------------------------|
G-||-------------------------|-------------------------|
D-||-------------------------|-------------------------|
A-||--7--7--7--7--7--7--7--7-|--7--7--7--7--7--7--7--7-|
E-||--9--9--9--9--9--9--9--9-|--9--9--9--9--9--9--9--9-|

e-||-------------------------|-------------------------|
B-||-------------------------|-------------------------|
G-||-------------------------|-------------------------|
D-||--6--6--6--6--6--6--6--6-|--6--6--6--6--6--6--6--6-|
A-||--4--4--4--4--4--4--4--4-|--4--4--4--4--4--4--4--4-|
E-||--4--4--4--4--4--4--4--4-|--4--4--4--4--4--4--4--4-|

e-||-------------------------|-------------------------|
B-||-------------------------|-------------------------|
G-||-------------------------|-------------------------|
D-||--9--9--9--9--9--9--9--9-|-11-11-11-11-11-11-11-11-|
A-||--7--7--7--7--7--7--7--7-|--9--9--9--9--9--9--9--9-|
E-||--7--7--7--7--7--7--7--7-|--9--9--9--9--9--9--9--9-|

e-||-------------------------|-------------------------|
B-||-------------------------|-------------------------|
G-||-------------------------|-------------------------|
D-||-----------4----X--------|-------------------------|
A-||--4-----X--2----X--2-----|---X--5--5------5~~~~~~~-|
E-||--6-----X----------0-----|---X--7--7------7~~~~~~~-|

e-||-------------------------|-------------------------|
B-||-------------------------|-------------------------|
G-||-------------------------|-------------------------|
D-||-----------4----X--------|-------------------------|
A-||--4-----X--2----X--2-----|---X--5--5------5~~~~~~~-|
E-||--6-----X----------0-----|---X--7--7------7~~~~~~~-|

e-||-------------------------|-------------------------|
B-||-------------------------|-------------------------|
G-||-------------------------|-------------------------|
D-||-----------4----X--------|-------------------------|
A-||--4-----X--2----X--2-----|---X--5--5------5~~~~~~~-|
E-||--6-----X----------0-----|---X--7--7------7~~~~~~~-|

e-||-------------------------|-------------------------|
B-||-------------------------|-------------------------|
G-||-------------------------|-------------------------|
D-||-------------------------|-------------------------|
A-||---4~~~--2~~~--5~~~~~~~~~|~~~~~~~~~~~~~~~~~~~~~~~~~|
E-||---6~~~--0~~~--5~~~~~~~~~|~~~~~~~~~~~~~~~~~~~~~~~~~|

e-||-------------------------|-------------------------|
B-||-------------------------|-------------------------|
G-||-------------------------|-------------------------|
D-||-------------------------|-------------------------|
A-||--2--2--2--2--2--2--2--2-|--5--5--5--5--5--5--5--5-|
E-||--4--4--4--4--4--4--4--4-|--7--7--7--7--7--7--7--7-|

e-||-------------------------|-------------------------|
B-||-------------------------|-------------------------|
G-||-------------------------|-------------------------|
D-||-------------------------|-------------------------|
A-||--5--5--5--5--5--5--5--5-|----3~~~~3~~~~3~~~~3~~~~-|
E-||--5--5--5--5--5--5--5--5-|----5~~~~5~~~~5~~~~5~~~~-|

e-||-------------------------|-------------------------|
B-||-------------------------|-------------------------|
G-||-------------------------|-------------------------|
D-||-------------------------|-------------------------|
A-||--2--2--2--2--2--2--2--2-|--5--5--5--5--5--5--5--5-|
E-||--4--4--4--4--4--4--4--4-|--5--5--5--5--5--5--5--5-|

e-||-------------------------|-------------------------|
B-||-------------------------|-------------------------|
G-||-------------------------|-------------------------|
D-||--2----------------------|--2----------------------|
A-||--2----------------------|--2-------------3--------|
E-||--0----------------------|--0--------0----1--------|

e-||-------------------------|-------------------------|
B-||-------------------------|-------------------------|
G-||-------------------------|-------------------------|
D-||-------------------------|-------------------------|
A-||--4--4--4--4--4--4--4--4-|--4--4--4--4--4--4--4--4-|
E-||--6--6--6--6--6--6--6--6-|--6--6--6--6--6--6--6--6-|

e-||-------------------------|-------------------------|
B-||-------------------------|-------------------------|
G-||-------------------------|-------------------------|
D-||-------------------------|-------------------------|
A-||--7--7--7--7--7--7--7--7-|--7--7--7--7--7--7--7--7-|
E-||--9--9--9--9--9--9--9--9-|--9--9--9--9--9--9--9--9-|

e-||-------------------------|-------------------------|
B-||-------------------------|-------------------------|
G-||-------------------------|-------------------------|
D-||--6--6--6--6--6--6--6--6-|--6--6--6--6--6--6--6--6-|
A-||--4--4--4--4--4--4--4--4-|--4--4--4--4--4--4--4--4-|
E-||--4--4--4--4--4--4--4--4-|--4--4--4--4--4--4--4--4-|

e-||-------------------------|-------------------------|
B-||-------------------------|-------------------------|
G-||-------------------------|-------------------------|
D-||--9--9--9--9--9--9--9--9-|-11-11-11-11-11-11-11-11-|
A-||--7--7--7--7--7--7--7--7-|--9--9--9--9--9--9--9--9-|
E-||--7--7--7--7--7--7--7--7-|--9--9--9--9--9--9--9--9-|

e-||-------------------------|-------------------------|
B-||-------------------------|-------------------------|
G-||-------------------------|-------------------------|
D-||-------------------------|-------------------------|
A-||--4--4--4--4--4--4--4--4-|--4--4--4--4--4--4--4--4-|
E-||--6--6--6--6--6--6--6--6-|--6--6--6--6--6--6--6--6-|

e-||-------------------------|-------------------------|
B-||-------------------------|-------------------------|
G-||-------------------------|-------------------------|
D-||-------------------------|-------------------------|
A-||--7--7--7--7--7--7--7--7-|--7--7--7--7--7--7--7--7-|
E-||--9--9--9--9--9--9--9--9-|--9--9--9--9--9--9--9--9-|

e-||-------------------------|-------------------------|
B-||-------------------------|-------------------------|
G-||-------------------------|-------------------------|
D-||--6--6--6--6--6--6--6--6-|--6--6--6--6--6--6--6--6-|
A-||--4--4--4--4--4--4--4--4-|--4--4--4--4--4--4--4--4-|
E-||--4--4--4--4--4--4--4--4-|--4--4--4--4--4--4--4--4-|

e-||-------------------------|-------------------------|
B-||-------------------------|-------------------------|
G-||-------------------------|-------------------------|
D-||--9--9--9--9--9--9--9--9-|-11-11-11-11-11-11-11-11-|
A-||--7--7--7--7--7--7--7--7-|--9--9--9--9--9--9--9--9-|
E-||--7--7--7--7--7--7--7--7-|--9--9--9--9--9--9--9--9-|

e-||-------------------------|-------------------------|
B-||-------------------------|-------------------------|
G-||-------------------------|-------------------------|
D-||-----------4----X--------|-------------------------|
A-||--4-----X--2----X--2-----|---X--5--5------5~~~~~~~-|
E-||--6-----X----------0-----|---X--7--7------7~~~~~~~-|

e-||-------------------------|-------------------------|
B-||-------------------------|-------------------------|
G-||-------------------------|-------------------------|
D-||-----------4----X--------|-------------------------|
A-||--4-----X--2----X--2-----|---X--5--5------5~~~~~~~-|
E-||--6-----X----------0-----|---X--7--7------7~~~~~~~-|

e-||-------------------------|-------------------------|
B-||-------------------------|-------------------------|
G-||-------------------------|-------------------------|
D-||-----------4----X--------|-------------------------|
A-||--4-----X--2----X--2-----|---X--5--5------5~~~~~~~-|
E-||--6-----X----------0-----|---X--7--7------7~~~~~~~-|

e-||-------------------------|-------------------------|
B-||-------------------------|-------------------------|
G-||-------------------------|-------------------------|
D-||-------------------------|-------------------------|
A-||--\7~~~~~~--7~~~--7~~~---|---7~~~~~--7~~~--7~~~~---|
E-||--\5~~~~~~--5~~~--5~~~---|---5~~~~~--5~~~--5~~~~---|

e-||-------------------------|-------------------------|
B-||-------------------------|-------------------------|
G-||-------------------------|-------------------------|
D-||-------------------------|-------------------------|
A-||---8----8--8--8--8--8--8-|--8--8--8--8--8--8--8--6-|
E-||---6----6--6--6--8--6--6-|--6--6--6--6--6--6--6--6-|

e-||-------------------------|-------------------------|
B-||-------------------------|-------------------------|
G-||-------------------------|-------------------------|
D-||-------------------------|-------------------------|
A-||---4----4--4--4--4--4--4-|---9----9--9--9--9--9--9-|
E-||---2----2--2--2--2--2--2-|---7----7--7--7--7--7--7-|

e-||-------------------------|-------------------------|
B-||-------------------------|-------------------------|
G-||-------------------------|-------------------------|
D-||-------------------------|-------------------------|
A-||---8----8--8--8--8--8--8-|---4----4--4--4--4--4--4-|
E-||---6----6--6--6--8--6--6-|---2----2--2--2--2--2--2-|

e-||-------------------------|-------------------------|
B-||-------------------------|-------------------------|
G-||-------------------------|-------------------------|
D-||-------------------------|-------------------------|
A-||---6----6--6--6--8--6--6-|---6----6--6--6--8--6--6-|
E-||---4----4--4--4--4--4--4-|---4----4--4--4--4--4--4-|

e-||-------------------------|-------------------------|
B-||-------------------------|-------------------------|
G-||-------------------------|-------------------------|
D-||-------------------------|-------------------------|
A-||---8----8--8--8--8--8--8-|--8--8--8--8--8--8--8--6-|
E-||---6----6--6--6--8--6--6-|--6--6--6--6--6--6--6--6-|

e-||-------------------------|-------------------------|
B-||-------------------------|-------------------------|
G-||-------------------------|-------------------------|
D-||-------------------------|-------------------------|
A-||---4----4--4--4--4--4--4-|---9----9--9--9--9--9--9-|
E-||---2----2--2--2--2--2--2-|---7----7--7--7--7--7--7-|

e-||-------------------------|-------------------------|
B-||-------------------------|-------------------------|
G-||-------------------------|-------------------------|
D-||-------------------------|-------------------------|
A-||---8----8--8--8--8--8--8-|---4----4--4--4--4--4--4-|
E-||---6----6--6--6--8--6--6-|---2----2--2--2--2--2--2-|

e-||-------------------------|-------------------------|
B-||-------------------------|-------------------------|
G-||-------------------------|-------------------------|
D-||-------------------------|-------------------------|
A-||---2~~~~~~~~~~~~~~~~~~~~~|~~~----------------------|
E-||---0~~~~~~~~~~~~~~~~~~~~~|~~~----------------------|


I Will Do The Rest Later, But For Now This Is It And I Think It Is 100% Because I Played 
It With The Song All The Way Through. But If There Is Any Mistakes My E-Mail is 





Comments


Popular 69 Eyes tabs & chords
Christina Death Bass Tabs
Still Waters Run Deep 2 Bass Tabs
Stolen Season Bass Tabs
Red Chords
Dead N' Gone Tabs
From Dusk Till Dawn 1 Tabs
Lost Boys Tabs
Sleeping With Lions 1 Tabs
Velvet Touch 1 Tabs
Wasting The Dawn 1 Tabs


Song lyrics



↑ Back to top | Tablatures and chords are parodies/interpretations of the original songs. You may use it for private study, scholarship, research or language learning purposes only
© 2014 AZChords.com Contact us | Privacy policy | DMCA | Add/correct tabs | Request tabs | Top 50 tabs