» » »

69 Eyes, From Dusk Till Dawn Tabs (ver.1)

Artists:  A B C D E F G H I J K L M N O P Q R S T U V W X Y Z # 

From Dusk Till Dawn Tabs (ver.1)

69 Eyes Tabs
Rating:
0/5 (0 votes)
From Dusk Till Dawn lessons Tabs too difficult? Try these video lessons and learn fast
                

Tuning: EADGBE

Intro: 

e|----------------------|
B|----------------------|
G|----------------------|
D|---4------------------| X 5 
A|6--2--2--7------------|
E|4-----0--5------------| 


e|----------------------|
B|----------------------|
G|----------------------|
D|----------------------| 
A|6--2--5---------------|
E|4--0--3---------------| 



Verses:


 |__________Palm mute this part_________________|

e|--------------------------------------------------------------------|
B|--------------------------------------------------------------------|
G|--------------------------------------------------------------------|
D|--------------------------------------------------------------------|
A|4-4-4-4-4-4-4-4-7-7-7-7-7-7-7-7-4-4-4-4-4-4-4-4--5--5--5------------|
E|2-2-2-2-2-2-2-2-5-5-5-5-5-5-5-5-2-2-2-2-2-2-2-2--3--3--3------------|

 |______and this_____________|                                              
 
e|--------------------------------------------------------------------|
B|--------------------------------------------------------------------|
G|--------------------------------------------------------------------|
D|--------------------------------------------------------------------|
A|4-4-4-4-4-4-4-4-7-7-7-7-7-7-7-7--2----------------------------------|
E|2-2-2-2-2-2-2-2-5-5-5-5-5-5-5-5--0--0-1-----------------------------|

 play the whole thing twice for each verse


Chorus:


e|--------------------------------------------------------------------|
B|--------------------------------------------------------------------|
G|--------------------------------------------------------------------|
D|------------------------------------------6-6-6666-6-6-6-6-6--------|
A|6-6-6666-6-6-6-6-6-6--9-9-9999-9-9-9-9-9--4-4-4444-4-4-4-4-4--------|
E|4-4-4444-4-4-4-4-4-4--7-7-7777-7-7-7-7-7----------------------------|

e|--------------------------------------------------------------------|
B|--------------------------------------------------------------------|
G|--------------------------------------------------------------------|
D|9-9999-9-9-9-9-9-9--11-11-11-11-------------------------------------|
A|7-7777-7-7-7-7-7-7--9--9--9--9--------------------------------------|
E|--------------------------------------------------------------------|

  play intro again a few times after each chorus
e|----------------------|
B|----------------------|
G|----------------------|
D|---4------------------|  
A|6--2--2--7------------|
E|4-----0--5------------| 


e|----------------------|
B|----------------------|
G|----------------------|
D|----------------------| 
A|6--2--5---------------|
E|4--0--3---------------| 

  Repeat the verse and chorus again

Bridge:

e|-------------------------------------------|
b|-------------------------------------------|
g|---3---3-5--6--11~--8-----3---3-5-6---8~---|
d|-------------------------------------------|
a|-------------------------------------------|
e|-------------------------------------------|

e|--------------------------------------------------------------------|
b|-------------------------------------------10--10--10--10--10--10---|
g|---3---3-5--6--11~--8-----3---3-5-6---8~---12b-12b-12b-12b-12b-12b--|
d|--------------------------------------------------------------------|
a|--------------------------------------------------------------------|
e|--------------------------------------------------------------------|

Play the chorus again and thats it.

- pls rate this tab and feel free to criticize or comment. 



| /  slide up
| \  slide down
| h  hammer-on
| b  bend 
| p  pull-off
| ~  vibrato
| +  harmonic
| x  Mute note
===============================================================================
            
Submit corrections

comments powered by Disqus
↑ Back to top | 69 Eyes Tabs for From Dusk Till Dawn. Lyrics for acoustic guitar and electric guitar. Tablatures and chords are parodies/interpretations of the original songs. You may use it for private study, scholarship, research or language learning purposes only