» » »

69 Eyes, From Dusk Till Dawn Tabs (ver.2)

Artists:  A B C D E F G H I J K L M N O P Q R S T U V W X Y Z # 

From Dusk Till Dawn Tabs (ver.2)

69 Eyes Tabs
 Rating:
4/5 (7 votes)
From Dusk Till Dawn lessons Tabs too difficult? Try these video lessons and learn fast
1
                intro
      G#5    B#5    E5      A5
e|----x-x----x-x----x----x-x-x-x-------|
b|----x-x----x-x----x----x-x-x-x-------|
g|----x-x----4-4----x----x-x-x-x-------|
d|----6-6----4-4----2----7-7-7-7-------|  x5
a|----6-6----2-2----2----7-7-7-7-------|
e|----4-4----x-x----x----5-5-5-5-------|

     G#5   E5
e|----x----x----x----------------------|
b|----x----x----x----------------------|
g|----x----x----x----------------------|
d|----6----2----0----------------------|
a|----6----2----0----------------------|
e|----4----x----x----------------------|

~ = let it ring
b = bend

solo
e|-------------------------------------------|
b|-------------------------------------------|
g|---3---3-5--6--11~--8-----3---3-5-6---8~---|
d|-------------------------------------------|
a|-------------------------------------------|
e|-------------------------------------------|

e|--------------------------------------------------------------------|
b|--------------------------------------------------------------------|
g|---3---3-5--6--11~--8-----3---3-5-6---9~---11b-11b-11b-11b-11b-11b--|
d|--------------------------------------------------------------------|
a|--------------------------------------------------------------------|
e|--------------------------------------------------------------------|


or you can play it like this:

e|--------------------------------------------------|
b|---------------7~---4----------------4~-----------|
g|---3---3-5-6-------------3---3-5-6----------------|
d|--------------------------------------------------|
a|--------------------------------------------------|
e|--------------------------------------------------|

e|--------------------------------------------------------------|
b|---------------7~---4----------------5~---7b-7b-7b-7b-7b-7b---|
g|---3---3-5-6-------------3---3-5-6----------------------------|
d|--------------------------------------------------------------|
a|--------------------------------------------------------------|
e|--------------------------------------------------------------|
            
Submit corrections

comments powered by Disqus
↑ Back to top | 69 Eyes Tabs for From Dusk Till Dawn. Lyrics for acoustic guitar and electric guitar. 1 Tablatures and chords are parodies/interpretations of the original songs. You may use it for private study, scholarship, research or language learning purposes only