>
 >
Brandon Lee 1

Brandon Lee 1 Bass Tabs

69 Eyes - Brandon Lee 1 chords, tabs, tablatures, lyrics

Guitar lessons | Add/correct | Request | Top 50 tabs Artists:  A B C D E F G H I J K L M N O P Q R S T U V W X Y Z 0-9

Brandon Lee 1 Bass Tabs – 69 Eyes

CD, Sheet music, Poster

Do you like Brandon Lee 1? Share with your friends now
Bass TabsBass Tabs v2ChordsTabsUkulele
#------------------------------------------------------------------------------##

                             BRANDON LEE (Bassline)
                           As recorded by The 69 Eyes
                        (From the 2000 Album BLESSED BE)

Words by Jyrki 69

Music by Bazie
Arranged by Johnny Lee Michaels & The 69 Eyes

Gtr I (Db Ab Db Gb) - 'Bass'
Gtr II (Db Ab Db Gb Bb Eb) - 'Keyboard arr. for guitar'
Gtr III (Db Ab Db Gb Bb Eb) - 'Keyboard arr. for guitar'

 Intro
  Moderately Fast Rock Q=140
 4/4
  Gtr I
  Wx8          E E E E E E E E   E E E E E E E E
|------------|-----------------|------------------||
|------------|-----------------|------------------||
|------------|-----------------|------------------||
|------------|-5-5-5-5-5-5-5-5-|-5-5-5-5-5-5-5-5--||


 Intro cont. / Chorus
  $
   E E E E E E E E     E  E E E E E E E
|------------------|--------------------|
|------------------|--------------------|
|--5-5-5-5-5-5-5-5-|---5--5-5-5-5-5-5-5-|
|------------------|--------------------|
|
| Gtr II
|  <
|  W                  +W
|-10---------------|-(10)---------------|
|------------------|--------------------|
|------------------|--------------------|
|------------------|--------------------|
|------------------|--------------------|
|------------------|--------------------|


   E E E E E E E E     E   E  E  E  E  E  E  E
|------------------|---------------------------|
|------------------|---------------------------|
|------------------|---------------------------|
|--8-8-8-8-8-8-8-8-|--10--10-10-10-10-10-10-10-|
|
|  <
|  W                  +W
|-13---------------|-(13)----------------------|
|------------------|---------------------------|
|------------------|---------------------------|
|------------------|---------------------------|
|------------------|---------------------------|
|------------------|---------------------------|


   E E E E E E E E     E   E  E  E  E  E  E  E
|------------------|---------------------------|
|------------------|---------------------------|
|--5-5-5-5-5-5-5-5-|---------------------------|
|------------------|--10--10-10-10-10-10-10-10-|
|
|  <
|  W                  +W
|-17---------------|-(17)----------------------|
|------------------|---------------------------|
|------------------|---------------------------|
|------------------|---------------------------|
|------------------|---------------------------|
|------------------|---------------------------|


    E  E E E E E E E     E  E E E  E  E  E  E
|--------------------|------------------------||
|--------------------|------------------------||
|--------------------|------------------------||
|---8--8-8-8-8-8-8-8-|---5--5-5-5-10-10-10-10-||
|
|                        >
|  +W                   +W
|-(17)---------------|-(17)-------------------||
|--------------------|------------------------||
|--------------------|------------------------||
|--------------------|------------------------||
|--------------------|------------------------||
|--------------------|------------------------||


 Verse
    E  E E E E E E E     E  E E E E E E E
|--------------------|--------------------|
|--------------------|--------------------|
|--------------------|--------------------|
|---0--0-0-0-0-0-0-0-|---0--0-0-0-0-0-0-0-|
|
|                        >
|  +W                    W
|-(17)---------------|-(17)---------------|
|--------------------|--------------------|
|--------------------|--------------------|
|--------------------|--------------------|
|--------------------|--------------------|
|--------------------|--------------------|


  E E  E  E E E E E   E E  E  E E E E E
|-------------------|-------------------|
|-------------------|-------------------|
|-------------------|-3-3--3--3-3-3-3-3-|
|-3-3--3--3-3-3-3-3-|-------------------|
|
| <                   <
| Q   +Q    H         Q   +Q    H
|-------------------|-------------------|
|-------------------|-------------------|
|-------------------|-------------------|
|-3---(3)-----------|-2---(2)-----------|
|-------------------|-------------------|
|-------------------|-------------------|


  E E  E  E E E E E   E E E E E E E E   E E  E  E E E E E   E E  E  E E E E E
|-------------------|-----------------|-------------------|-------------------|
|-------------------|-----------------|-------------------|-------------------|
|-------------------|-----------------|-------------------|-------------------|
|-0-0--0--0-0-0-0-0-|-0-0-0-0-0-0-0-0-|-3-3--3--3-3-3-3-3-|-5-5--5--5-5-5-5-5-|
|
| <                                     <                   <
| Q   +Q    H         W                 Q   +Q    H         Q   +Q    H
|-------------------|-----------------|-------------------|-------------------|
|-------------------|-----------------|-------------------|-------------------|
|-------------------|-----------------|-------------------|-------------------|
|-------------------|-----------------|-3---(3)-----------|-5---(5)-----------|
|-5---(5)-----------|-----------------|-------------------|-------------------|
|-------------------|-----------------|-------------------|-------------------|


  E E  E  E E E E E   E E E E E E E E   E E  E  E E E E E   E E  E  E E E E E
|-------------------|-----------------|-------------------|-------------------|
|-------------------|-----------------|-------------------|-------------------|
|-------------------|-----------------|-------------------|-3-3--3--3-3-3-3-3-|
|-0-0--0--0-0-0-0-0-|-0-0-0-0-0-0-0-0-|-3-3--3--3-3-3-3-3-|-------------------|
|
| <                                     <                   <
| Q   +Q    H         W                 Q   +Q    H         Q   +Q    H
|-------------------|-----------------|-------------------|-------------------|
|-------------------|-----------------|-------------------|-------------------|
|-------------------|-----------------|-------------------|-------------------|
|-------------------|-----------------|-3---(3)-----------|-2---(2)-----------|
|-5---(5)-----------|-----------------|-------------------|-------------------|
|-------------------|-----------------|-------------------|-------------------|


  E E  E  E E E E E    E  E   E   E  E  E  E  E
|-------------------|---------------------------|
|-------------------|---------------------------|
|-5-5--5--5-5-5-5-5-|---------------------------|
|-------------------|-10-10--10--10-10-10-10-10-|
|
| <                    <
| Q   +Q    H          Q     +Q      H
|-------------------|---------------------------|
|-------------------|---------------------------|
|-------------------|---------------------------|
|-------------------|---------------------------|
|-5---(5)-----------|---------------------------|
|-------------------|-10----(10)----------------|


                                                  D.S.
  E E  E  E E E E E   W                +H     +E  E E E
|-------------------|----------------|------------------||
|-------------------|----------------|------------------||
|-------------------|----------------|------------------||
|-8-8--8--8-8-8-8-8-|-5--------------|-(5)----(5)-3-5-3-||
|
| <                   <          >
| Q   +Q    H         Q  +H     +Q     +W
|-------------------|----------------|------------------||
|-------------------|----------------|------------------||
|-------------------|----------------|------------------||
|-------------------|----------------|------------------||
|-------------------|----------------|------------------||
|-8---(8)-----------|-5--(5)----(5)--|-(5)--------------||


 Chorus
   E E E E E E E E     E  E E E E E E E
|------------------|--------------------|
|------------------|--------------------|
|--5-5-5-5-5-5-5-5-|---5--5-5-5-5-5-5-5-|
|------------------|--------------------|
|
| Gtr II
|  <
|  W                  +W
|-10---------------|-(10)---------------|
|------------------|--------------------|
|------------------|--------------------|
|------------------|--------------------|
|------------------|--------------------|
|------------------|--------------------|


   E E E E E E E E     E   E  E  E  E  E  E  E
|------------------|---------------------------|
|------------------|---------------------------|
|------------------|---------------------------|
|--8-8-8-8-8-8-8-8-|--10--10-10-10-10-10-10-10-|
|
|  <
|  W                  +W
|-13---------------|-(13)----------------------|
|------------------|---------------------------|
|------------------|---------------------------|
|------------------|---------------------------|
|------------------|---------------------------|
|------------------|---------------------------|


   E E E E E E E E     E   E  E  E  E  E  E  E
|------------------|---------------------------|
|------------------|---------------------------|
|--5-5-5-5-5-5-5-5-|---------------------------|
|------------------|--10--10-10-10-10-10-10-10-|
|
|  <
|  W                  +W
|-17---------------|-(17)----------------------|
|------------------|---------------------------|
|------------------|---------------------------|
|------------------|---------------------------|
|------------------|---------------------------|
|------------------|---------------------------|


    E  E E E E E E E     E  E E E  E  E  E  E
|--------------------|------------------------|
|--------------------|------------------------|
|--------------------|------------------------|
|---8--8-8-8-8-8-8-8-|---5--5-5-5-10-10-10-10-|
|
|  +W                   +W
|-(17)---------------|-(17)-------------------|
|--------------------|------------------------|
|--------------------|------------------------|
|--------------------|------------------------|
|--------------------|------------------------|
|--------------------|------------------------|


  E E E E E E E E   E E E E E E E E
|-----------------|-----------------|
|-----------------|-----------------|
|-5-5-5-5-5-5-5-5-|-5-5-5-5-5-5-5-5-|
|-----------------|-----------------|


  E E E E E E E E    E  E  E  E  E  E  E  E
|-----------------|-------------------------|
|-----------------|-------------------------|
|-----------------|-------------------------|
|-8-8-8-8-8-8-8-8-|-10-10-10-10-10-10-10-10-|


  E E E E E E E E    E  E  E  E  E  E  E  E
|-----------------|-------------------------|
|-----------------|-------------------------|
|-5-5-5-5-5-5-5-5-|-------------------------|
|-----------------|-10-10-10-10-10-10-10-10-|


  E E E E E E E E   E E E E  E  E  E  E
|-----------------|---------------------||
|-----------------|---------------------||
|-----------------|---------------------||
|-8-8-8-8-8-8-8-8-|-5-5-5-5-10-10-10-10-||


 Bridge / Piano Solo
  E E E E E E E E   E E E E E E E E   E E E E E E E E   E E E E E E E E
|-----------------|-----------------|-----------------|-----------------|
|-----------------|-----------------|-----------------|-----------------|
|-----------------|-----------------|-----------------|-----------------|
|-8-8-8-8-8-8-8-8-|-8-8-8-8-8-8-8-8-|-0-0-0-0-0-0-0-0-|-0-0-0-0-0-0-0-0-|


  E E E E E E E E   E E E E E E E E   E E E E E E E E   Q.   E +Q   Q
|-----------------|-----------------|-----------------|----------------||
|-----------------|-----------------|-----------------|----------------||
|-----------------|-----------------|-----------------|----------------||
|-8-8-8-8-8-8-8-8-|-8-8-8-8-8-8-8-8-|-7-7-7-7-7-7-7-7-|-5----3-(3)--2--||


 Interlude
  W          +W           +W
|----------|------------|---------------|
|----------|------------|---------------|
|----------|------------|---------------|
|-0--------|-(0)--------|-(0)-----------|
|
|                              Gtr III
| W           W            Q   Q  Q  q
|----------|------------|---------------|
|----------|------------|------6--5--6--|
|----------|------------|---------------|
|----------|------------|---------------|
|----------|------------|---------------|
|----------|------------|---------------|


   >
  +W              W             W
|---------------|-------------|-------------|
|---------------|-------------|-------------|
|---------------|-------------|-------------|
|-(0)-----------|-------------|-------------|
|
|  q   Q  Q  q    q  Q  Q  q    Q  q  Q  q
|---------------|-------------|-------------|
|------6--5--6--|----6--5--6--|-8--6--5--6--|
|---------------|-------------|-------------|
|---------------|-------------|-------------|
|---------------|-------------|-------------|
|--0------------|-0-----------|-------------|


  W             W             W             E E E E E E E E
|-------------|-------------|-------------|-----------------||
|-------------|-------------|-------------|-----------------||
|-------------|-------------|-------------|-----------------||
|-------------|-------------|-------------|-5-5-5-5-5-5-5-5-||
|
| q  Q  Q  q    q  Q  Q  q    q  Q  Q  q    Q   q   Q   q
|-------------|-------------|-------------|-----------------||
|----6--5--6--|----6--5--6--|----6--5--6--|-8---6---5---6---||
|-------------|-------------|-------------|-----------------||
|-------------|-------------|-------------|-----------------||
|-------------|-------------|-------------|-----------------||
|-0-----------|-0-----------|-0-----------|-----------------||


 Out-Chorus
   E E E E E E E E     E  E E E E E E E
|------------------|--------------------|
|------------------|--------------------|
|--5-5-5-5-5-5-5-5-|---5--5-5-5-5-5-5-5-|
|------------------|--------------------|
|
| Gtr II
|  <
|  W                  +W
|-10---------------|-(10)---------------|
|------------------|--------------------|
|------------------|--------------------|
|------------------|--------------------|
|------------------|--------------------|
|------------------|--------------------|


   E E E E E E E E     E   E  E  E  E  E  E  E
|------------------|---------------------------|
|------------------|---------------------------|
|------------------|---------------------------|
|--8-8-8-8-8-8-8-8-|--10--10-10-10-10-10-10-10-|
|
|  <
|  W                  +W
|-13---------------|-(13)----------------------|
|------------------|---------------------------|
|------------------|---------------------------|
|------------------|---------------------------|
|------------------|---------------------------|
|------------------|---------------------------|


   E E E E E E E E     E   E  E  E  E  E  E  E
|------------------|---------------------------|
|------------------|---------------------------|
|--5-5-5-5-5-5-5-5-|---------------------------|
|------------------|--10--10-10-10-10-10-10-10-|
|
|  <
|  W                  +W
|-17---------------|-(17)----------------------|
|------------------|---------------------------|
|------------------|---------------------------|
|------------------|---------------------------|
|------------------|---------------------------|
|------------------|---------------------------|


    E  E E E E E E E     E  E E E  E  E  E  E
|--------------------|------------------------|
|--------------------|------------------------|
|--------------------|------------------------|
|---8--8-8-8-8-8-8-8-|---5--5-5-5-10-10-10-10-|
|
|  +W                   +W
|-(17)---------------|-(17)-------------------|
|--------------------|------------------------|
|--------------------|------------------------|
|--------------------|------------------------|
|--------------------|------------------------|
|--------------------|------------------------|


   E E E E E E E E     E  E E E E E E E
|------------------|--------------------|
|------------------|--------------------|
|--5-5-5-5-5-5-5-5-|---5--5-5-5-5-5-5-5-|
|------------------|--------------------|
|
|  <
|  W                  +W
|-17---------------|-(17)---------------|
|------------------|--------------------|
|------------------|--------------------|
|------------------|--------------------|
|------------------|--------------------|
|------------------|--------------------|
|
| Gtr III
|  Q   Q   Q   q       Q    Q   Q   q
|------------------|--------------------|
|------6---5---6---|--------6---5---6---|
|------------------|--------------------|
|------------------|--------------------|
|------------------|--------------------|
|------------------|--------------------|


    E  E E E E E E E     E   E  E  E  E  E  E  E
|--------------------|---------------------------|
|--------------------|---------------------------|
|--------------------|---------------------------|
|---8--8-8-8-8-8-8-8-|--10--10-10-10-10-10-10-10-|
|
|  +W                   +W
|-(17)---------------|-(17)----------------------|
|--------------------|---------------------------|
|--------------------|---------------------------|
|--------------------|---------------------------|
|--------------------|---------------------------|
|--------------------|---------------------------|
|
|   Q    Q   Q   q       H            E  E  E  E
|--------------------|---------------------------|
|--------6---5---6---|---8------------5----------|
|--------------------|-------------------7--5--7-|
|--------------------|---------------------------|
|--------------------|---------------------------|
|--------------------|---------------------------|


   E E E E E E E E     E   E  E  E  E  E  E  E
|------------------|---------------------------|
|------------------|---------------------------|
|--5-5-5-5-5-5-5-5-|---------------------------|
|------------------|--10--10-10-10-10-10-10-10-|
|
|  <
|  W                  +W
|-17---------------|-(17)----------------------|
|------------------|---------------------------|
|------------------|---------------------------|
|------------------|---------------------------|
|------------------|---------------------------|
|------------------|---------------------------|
|
|  Q   Q   Q   q       Q      Q     Q     q
|------------------|---------------------------|
|------6---5---6---|----------6-----5-----6----|
|------------------|---------------------------|
|------------------|---------------------------|
|------------------|---------------------------|
|------------------|---------------------------|


    E  E E E E E E E     E  E E E  E  E  E  E
|--------------------|------------------------||
|--------------------|------------------------||
|--------------------|------------------------||
|---8--8-8-8-8-8-8-8-|---5--5-5-5-10-10-10-10-||
|
|  +W                   +W
|-(17)---------------|-(17)-------------------||
|--------------------|------------------------||
|--------------------|------------------------||
|--------------------|------------------------||
|--------------------|------------------------||
|--------------------|------------------------||
|
|   Q    Q   Q   q       H         H
|--------------------|------------------------||
|--------6---5---6---|---8--------------------||
|--------------------|------------------------||
|--------------------|------------------------||
|--------------------|------------------------||
|--------------------|------------------------||


 Outro
   E E E E  E E E E     E   E   E  E E E E E    E E E E  E E E E
|-------------------|------------------------|-------------------|
|-------------------|------------------------|-------------------|
|-------------------|------------------------|-------------------|
|--0-0-0-0--0-0-0-0-|--10--10--10-10-8-8-8-8-|--0-0-0-0--0-0-0-0-|
|
|  <                                            <
|  W                   +W                       W
|-10----------------|-(10)-------------------|-13----------------|
|-------------------|------------------------|-------------------|
|-------------------|------------------------|-------------------|
|-------------------|------------------------|-------------------|
|-------------------|------------------------|-------------------|
|-------------------|------------------------|-------------------|
|
| Gtr III
|  e e e Q.     e e     e   Q.       e e e E    e e e Q.     e e
|-------------------|------------------------|-------------------|
|--6-6-6--------6-6-|---6------------6-6-6---|--6-6-6--------6-6-|
|--7-7-7--------7-7-|---7------------7-7-7---|--7-7-7--------7-7-|
|-------------------|------------------------|-------------------|
|-------------------|------------------------|-------------------|
|-------------------|------------------------|-------------------|


    E   E   E  E E E E E    E E E E  E E E E     E   E   E  E E E E E
|------------------------|-------------------|------------------------|
|------------------------|-------------------|------------------------|
|------------------------|-------------------|------------------------|
|--10--10--10-10-8-8-8-8-|--0-0-0-0--0-0-0-0-|--10--10--10-10-8-8-8-8-|
|
|                           <
|  +W                       W                   +W
|-(13)-------------------|-17----------------|-(17)-------------------|
|------------------------|-------------------|------------------------|
|------------------------|-------------------|------------------------|
|------------------------|-------------------|------------------------|
|------------------------|-------------------|------------------------|
|------------------------|-------------------|------------------------|
|
|   e   Q.       e e e E    e e e Q.     e e     e   Q.       e e e E
|------------------------|--5-5-5--------5-5-|---5------------5-5-5---|
|---6------------6-6-6---|--6-6-6--------6-6-|---6------------6-6-6---|
|---7------------7-7-7---|-------------------|------------------------|
|------------------------|-------------------|------------------------|
|------------------------|-------------------|------------------------|
|------------------------|-------------------|------------------------|


    E  E E E  E E E E     E   E   E  E E E E E     q   H.
|---------------------|------------------------|-------------*|
|---------------------|------------------------|-------------*|
|---------------------|------------------------|-------------*|
|---0--0-0-0--0-0-0-0-|--10--10--10-10-8-8-8-8-|---0---------*|
|
|                                                  >
|  +W                    +W                       +W
|-(17)----------------|-(17)-------------------|-(17)--------*|
|---------------------|------------------------|-------------*|
|---------------------|------------------------|-------------*|
|---------------------|------------------------|-------------*|
|---------------------|------------------------|-------------*|
|---------------------|------------------------|-------------*|
|
|   e  e e Q.     e e     e   Q.       e e e E     W
|---------------------|------------------------|-------------*|
|---6--6-6--------6-6-|---6------------6-6-6---|-------------*|
|---7--7-7--------7-7-|---7------------7-7-7---|-------------*|
|---------------------|------------------------|-------------*|
|---------------------|------------------------|-------------*|
|---------------------|------------------------|-------------*|


Duration Legend
---------------
W - whole; H - half; Q - quarter; E - 8th; S - 16th; T - 32nd; X - 64th; a - acciaccatura
+ - note tied to previous; . - note dotted; .. - note double dotted
Uncapitalized letters represent notes that are staccato (1/2 duration)
Irregular groupings are notated above the duration line
Duration letters will always appear directly above the note/fret number it represents the
duration for.  Duration letters with no fret number below them represent rests.  Multi-
bar rests are notated in the form Wxn, where n is the number of bars to rest for.  Low
melody durations appear below the staff

Tablature Legend
----------------
 h   - hammer-on
 p   - pull-off
 b   - bend
 pb  - pre-bend
 r   - bend release (if no number after the r, then release immediately)
 /\  - slide into or out of (from/to "nowhere")
 s   - legato slide
 S   - shift slide
  - natural harmonic
[n]  - artificial harmonic
n(n) - tapped harmonic
 ~   - vibrato
 tr  - trill
 T   - tap
 TP  - trem. picking
 PM  - palm muting
\n/  - tremolo bar dip; n = amount to dip
 \n  - tremolo bar down
 n/  - tremolo bar up
/n\  - tremolo bar inverted dip
 =   - hold bend; also acts as connecting device for hammers/pulls
 <>  - volume swell (louder/softer)
 x   - on rhythm slash represents muted slash
 o   - on rhythm slash represents single note slash

Misc Legend
-----------
 |  - bar
||  - double bar
||o - repeat start
o|| - repeat end
*|  - double bar (ending)
 :  - bar (freetime)
 $  - Segno
 &  - Coda
Tempo markers -  = BPM(8/16=s8/s16), where s8 = swing 8ths, s16 = swing 16ths





Comments


Popular 69 Eyes tabs & chords
Brandon Lee Bass Tabs
Devils Bass Tabs
Gothic Girl Bass Tabs
Still Waters Run Deep Bass Tabs
Velvet Touch Bass Tabs
Chair Chords
Red Chords
Stolen Season Tabs
Brandon Lee Ukulele
Wasting The Dawn Ukulele


Song lyrics



↑ Back to top | Tablatures and chords are parodies/interpretations of the original songs. You may use it for private study, scholarship, research or language learning purposes only
© 2014 AZChords.com Contact us | Privacy policy | DMCA | Add/correct tabs | Request tabs | Top 50 tabs