» » »

69 Eyes, Brandon Lee Tabs (ver.1)

Artists:  A B C D E F G H I J K L M N O P Q R S T U V W X Y Z # 

Brandon Lee Tabs (ver.1)

69 Eyes Tabs
 Rating:
4.7/5 (14 votes)
Brandon Lee lessons Tabs too difficult? Try these video lessons and learn fast
                
e|----------------------------------------------------------------|
B|----------9--------------7--------------------------9-12-10--9--|
G|-9--8--6-----6--9--8--6-----9--8--6--4--6--9--8--6--------------|
D|----------------------------------------------------------------|
A|----------------------------------------------------------------|
E|----------------------------------------------------------------|

e|----------------------------|
B|----------7-----------------|
G|-9--8--6-----9--8--6--4--6--|
D|----------------------------|
A|----------------------------|
E|----------------------------|

e|-----------|-----------|
B|-----5-----|-----------|
G|--6--4-----|--6--------|
D|--6--2--4--|--6--7--4--|
A|--4-----4--|--4--7--4--|
E|--------2--|-----5--2--|
            
Submit corrections

comments powered by Disqus
↑ Back to top | 69 Eyes Tabs for Brandon Lee. Lyrics for acoustic guitar and electric guitar. Tablatures and chords are parodies/interpretations of the original songs. You may use it for private study, scholarship, research or language learning purposes only