» » »

69 Eyes, Brandon Lee Bass tabs (ver.1)

Artists:  A B C D E F G H I J K L M N O P Q R S T U V W X Y Z # 

Brandon Lee Bass tabs (ver.1)

69 Eyes Tabs
Rating:
5/5 (1 vote)
Brandon Lee lessons Tabs too difficult? Try these video lessons and learn fast
                THE 69 EYES
BRANDON LEE


TUNED NORMAL (EADG)
(NOTE: all C# [A-4-] is played an octave lower and also D# [A-6-])

x = mute

INTRO
|-------------------------------------------------
|-------------------------------------------------
|-------------------------------2-4-4-4-4-4-4-4-4-
|-2-2-2-2-2-2-2-2-2-2-2-2-2-2-4-------------------

-------------------------------------------------
-------------------------------------------------
-4-4-4-4-4-4-4-4-----------------2-2-2-2-2-2-2-2-
-----------------5-5-5-5-5-5-5-5-----------------

-----------------------------------------------------------------|
-----------------------------------------------------------------|
-4-4-4-4-4-4-4-4-2-2-2-2-2-2-2-2-------------------------2-2-2-2-|
---------------------------------5-5-5-5-5-5-5-5-2-2-2-2---------|

VERSE 1/2
|-----------------------------------------------------------------|
|-----------------------------------------------------------------|
|-4-4-4-4-4-4-4-4-4-4-4-4-4-4-4-4---------------------------------|
|---------------------------------0-0-0-0-0-0-0-0-2-2-2-2-2-2-2-2-| x3
VERSE 2/2
|--------------------------------------------------------|--------|
|--------------------------------------------------------|--------|
|-4-4-4-4-4-4-4-4-2-2-2-2-2-2-2-2------------------------|--------|
|---------------------------------5-5-5-5-5-5-5-5-2------|--0-2-0-|

CHORUS
|-----------------------------------------------------------------
|-----------------------------------------------------------------
|-4-4-4-4-4-4-4-4-4-4-4-4-4-4-4-4-----------------2-2-2-2-2-2-2-2-
|---------------------------------5-5-5-5-5-5-5-5-----------------

-----------------------------------------------------------------|
-----------------------------------------------------------------|
-4-4-4-4-4-4-4-4-2-2-2-2-2-2-2-2-------------------------2-2-2-2-|
---------------------------------5-5-5-5-5-5-5-5-2-2-2-2---------|

VERSE 1/2
VERSE 2/2
CHORUS x2

No Name
|-----------------------------------------------------------------
|-----------------------------------------------------------------
|---------------------------------4-4-4-4-4-4-4-4-4-4-4-4-4-4-4-4-
|-5-5-5-5-5-5-5-5-5-5-5-5-5-5-5-5---------------------------------

--------------------------------------------------------------------|
--------------------------------------------------------------------|
---------------------------------------------------------6---4lr----|
-5-5-5-5-5-5-5-5-5-5-5-5-5-5-5-5-4-4-4-4-4-4-4-4-2---0--------------|

To chorus
|-----------------|
|-----------------|
|-----------------|
|-2-2-2-2-2-2-2-2-|

CHORUS x2

END
|---------------------------------|    |----|
|---------------------------------|    |----|
|-4-4-4-4-4-4-4-4-2-2-2-2---------|    |-4x-|
|-------------------------5-5-5-5-| x4 |----|
            

comments powered by Disqus
↑ Back to top | 69 Eyes Bass for Brandon Lee. Lyrics for acoustic guitar and electric guitar. Tablatures and chords are parodies/interpretations of the original songs. You may use it for private study, scholarship, research or language learning purposes only