>
 >
When I'm Gone 17

When I'm Gone 17 Guitar Tabs

3 Doors Down - When I'm Gone 17 chords, tabs, tablatures, lyrics

Guitar lessons | Add/correct | Request | Top 50 tabs Artists:  A B C D E F G H I J K L M N O P Q R S T U V W X Y Z 0-9

When I'm Gone 17 Guitar Tabs – 3 Doors Down

CD, Sheet music, Poster

Do you like When I'm Gone 17? Share with your friends now
Tabs
I was very upset to find that many of the 
tabs for this song were incorrect, here
is my version, im pretty sure this is
100% correct.

standard tuning:EADGBe

Intro

-----------0h1-----------1p0-----0h1-------------0h1-----------------3----------------
---------2-------2-------------2-------------------------------------0----------------
-----2-------------2-----------------------------2-------------------0----------------
---0------------------------------------------3----------------------2----------------

-------------0h1------------3-----------1-----------0h1--------------0h1------------3--------
---------2---------2------------2-----------2---------------------------------------0--------
------2---------------2-------------2----------2-------------------2----------------0--------
---0-------------------------------------------------------------3------------------2--------

Verse

----0------------------------------0----------3--------------------------------------
----1------------------------------1----------3--------------------------------------
----2------------------------------2----------0--------------------------------------
----2------------------------------0----------0--------------------------------------
----0-------------------------0h2--3----------2--------------------------------------
----------------------------------------------3--------------------------------------

x4

Prechorus (maybe im just blind)
-----------0h1---3----------------0h1----0-------------------------------------------
---------2--------------------2------------------------------------------------------
------2-------------------2----------------------------------------------------------
----0-----------------0--------------------------------------------------------------

Chorus

--------------4/5/4----------7--------------------------4/5/4-------------------------
-----7--------4/5/4----------7-------------5------------4/5/4-------------------------
-----7--------2/3/2----------5-------------5------------2/3/2-------------------------
-----5-------------------------------------3------------------------------------------

Little thingy after the chorus (love me when im gone)
-----7------------10-----------5------------------------------------------------------
-----7------------10-----------5------------------------------------------------------
-----5------------8------------3------------------------------------------------------

Verse



Chorus



Bridge

---------------5-----------10--------12-------13---------12----------------------------
---------------5-----------10--------12-------13---------12----------------------------
---------------7-----------8---------10-------11---------10----------------------------
end with  this ^ chord right before the pre chorus part


Pre chorus (maybe i'm just blind)

drum fill

Solo-play chorus

chorus

do the little part after the chorus-A, B#, G

"When I'm Gone"

There's another world inside of me
That you may never see
There's secrets in this life
That I can't hide
Somewhere in this darkness
There's a light that I can't find
Maybe it's too far away...
Maybe I'm just blind...

Maybe I'm just blind...

[chorus]
So hold me when I'm here
Right me when I'm wrong
Hold me when I'm scared
And love me when I'm gone
Everything I am
And everything in me
Wants to be the one
You wanted me to be
I'll never let you down
Even if I could
I'd give up everything
If only for your good
So hold me when I'm here
Love me when I'm wrong
You can hold me when I'm scared
You won't always be there
So love me when I'm gone
[end chorus]

Love me when I'm gone...

When your education x-ray
Can not see under my skin
I won't tell you a *** thing
That I could not tell my friends
Roaming through this darkness
I'm alive but I'm alone
Part of me is fighting this
But part of me is gone

[chorus]

Maybe I'm just blind...

[chorus]

Love me when I'm gone...

Love me when I'm gone
When I'm Gone
When I'm Gone
When I'm Gone





Comments


Popular 3 Doors Down tabs & chords
Away From The Sun Bass Tabs
Kryptonite 4 Bass Tabs
Be Like That (Intro Ver 2) Tabs
Be Like That Intro 1 Tabs
Believer Tabs
Days Gone Bye Tabs
Fathers Son 2 Tabs
Never Will I Break Tabs
Real Life Tabs
Here Without You Ukulele


Song lyrics



↑ Back to top | Tablatures and chords are parodies/interpretations of the original songs. You may use it for private study, scholarship, research or language learning purposes only
© 2014 AZChords.com Contact us | Privacy policy | DMCA | Add/correct tabs | Request tabs | Top 50 tabs