» » »

3 Doors Down, When I M Gone Tabs (ver.1)

Artists:  A B C D E F G H I J K L M N O P Q R S T U V W X Y Z # 

When I M Gone Tabs (ver.1)

3 Doors Down Tabs
 Rating:
4/5 (4 votes)
When I M Gone lessons Tabs too difficult? Try these video lessons and learn fast
                "(1)
3 doors down - when i'm gone....... 
few missing riffs but this is what the main stuff sounds like to me.


intro
------------------------------------------3--
-------0h1---1p0---0h1-------------0h1----3--
-----2----2------2-----2---2-----------0--0--
----2------2-------------2-------2--------0--
--0---------------------------3-----------2--
------------------------------------------3--


------------------------------------3--
-------0h1---3--1--0---------0h1----3--
-----2----2----------------------0--0--
----2------2---------------2--------0--
--0---------------------3-----------2--
------------------------------------3--

verse
-----0-------------------0--3--
--1---1------------------1--3--
--2----2-----------------0--0--
--2--------------------2----0--
--0-----------0-2-3-(3)-----2--
----------------------------3--


prechorus
---------------------------
-------0h1-3--------0h1-0--
-----2------------2--------
----2------------2---------
--0------------0-----------
---------------------------

chorus
------------------------------------
------------------------------------
--2-2---2-2-----4/5-4p0---7-7-------
--2-2---2-2-----4/5-4p0---7-7--5-5--
--0-0---0-0---0-2/3-2p0---5-5--5-5--
-------------------------------3-3--
"            
Submit corrections

comments powered by Disqus
↑ Back to top | 3 Doors Down Tabs for When I M Gone. Lyrics for acoustic guitar and electric guitar. Tablatures and chords are parodies/interpretations of the original songs. You may use it for private study, scholarship, research or language learning purposes only