» » »

3 Doors Down, When I M Gone Tabs (ver.2)

Artists:  A B C D E F G H I J K L M N O P Q R S T U V W X Y Z # 

When I M Gone Tabs (ver.2)

3 Doors Down Tabs
Rating:
0/5 (0 votes)
When I M Gone lessons Tabs too difficult? Try these video lessons and learn fast
                "(3)
Hey, ppl this is an awsome song. I thought that i would send my version of the song out. I think its pretty good.   
p= pull off
h= hammer on 
                                 
Intro
                (Guitar1)
E---------------------------------------------------|--------------------
B---------------------------------------------------|----------5------5--
G---------------------------------------------4h5---|---5/7--------------
D---------------------------------------------------|--------------------
A---------------------------------------------------|--------------------
E---------------------------------------------------|--------------------

                (guitar 2)
E----------------------------------------------|----------------------------
B------------0h1-----------1p0-----0h1---------|--------------0h1--------3--
G--------2---------2------------2--------2-----|----------0---------0----0--
D-----2----------------2--------------------2--|-------2------------0----0--
A--0-------------------------------------------|---3---------------------2--
E----------------------------------------------|-------------------------3--


E----------------------------------------|--------------------------
B---------0h1--------3--------1-----0----|--------0h1-----3--1p0----
G-------2------2--------2-------2-----0--|------0-----0---0------0--
D----2------------2--------2-------2-----|----2-----------0---------
A--0-------------------------------------|--3-------------2---------
E----------------------------------------|----------------3---------

             (Verse)                      (Interlude)
E--0--0-------------------------|----------------0-------------------
B--0-----0----------------1--3--|-----------0h1--3-----------0h1--0--
G--2--------2-------------0--0--|--------2----------------2-------2--
D--2--------------------2----0--|-----2----------------2-------------
A--0-----------0--2--3-------2--|--0----------------0----------------
E----------------------------3--|------------------------------------


                                                      (Chorus)
E--------------0----------------------|------------------------------------------
B---------0h1--3-----------0h1--------|------------------------------------------
G-------2---------------2-------2-----|---4/5\4-----2--2--------2--2--------4/5--
D-----2--------------2-------------2--|---4/5\4-----2--2--------2--2--------4/5--
A--0--------------0-------------------|---2/3\2-----0--0--0--0--0--0--0--0--2/3--
E-------------------------------------|----------0-------------------------------


E---------------------------------------------------------------------------
B---------------------------------------------------------------------------
G--------/7--7---------------------------------2--2--------2-----4/5--------
D--------/7--7--------5--5---------------------2--2--------2-----4/5--------
A--2-----/5--5--------5--5--------5--5--5--5---0--0--0--0--0--0--2/3--------
E-----0---------0--0--3--3--0--0--------------------------------------0--0--


E---------------------------------------
B---------------------------------------
G--/7---7---------------------4/5\4-----
D--/7---7--------5--5---------4/5\4-----
A--/5---5--------5--5---------2/3\2-----
E----------0--0--3--3--0---0---------0--
   
               (Bridge)
E----------------------------------------|------------------------------------------
B----------------------------------------|------------------------------------------
G--2--------4/5--------5/7--------7/9\7--|--2--------4/5--------5/7-----------------
D--2--------4/5--------5/7--------7/9\7--|--2--------4/5--------5/7-----------------
A--0--0--0--2/3--------3/7--------5/7\5--|--0--0--0--2/3--------3/5--------5--4--5--
E-----------2/3--0--0--3/5--0--0--5/7\5--|-----------2/3--0--0--3/5--0--0--3--2--3--

E--------------------0-------------------------
B------------0h1--3-----3--------------0h1--0--
G--------2-----------------2--------2-------2--
D-----2--------------------------2-------------
A--0--------------------------0----------------
E----------------------------------------------

That's all. I will send out my tab for the solo in awhile. Peace ppl.
"            
Submit corrections

comments powered by Disqus
↑ Back to top | 3 Doors Down Tabs for When I M Gone. Lyrics for acoustic guitar and electric guitar. Tablatures and chords are parodies/interpretations of the original songs. You may use it for private study, scholarship, research or language learning purposes only