» » »

The Road Im On Bass tabs (ver.1)

Artists:  A B C D E F G H I J K L M N O P Q R S T U V W X Y Z # 

The Road Im On Bass tabs (ver.1)

3 Doors Down
Rating:
0/5 (0 votes)

Hard to play? Try these video lessons and learn fast.
                (1)
Tuning:Standard 4 String(E,A,D,G)

Intro is Guitar....Bass comes in at 3:10

Verse:

G----------------------
D----------------------
A-------------2------5-
E---12/3---3-----1-----

Chorus/Solo:

G------------------------------------------------------
D------------------------------------------------------
A----------------------------------------3-3-3-3-3-3-3-
E--0-0-0-0-0--3-3-3-3-3-3--5-5-5-5-5-5-5---------------

Please rate my tab and pst comments in necessary...
            
Hard to play? Try these video lessons and learn fast. | Correct




comments powered by Disqus
↑ Back to top | Tablatures and chords are parodies/interpretations of the original songs. You may use it for private study, scholarship, research or language learning purposes only