» » »

The Road Im On Bass tabs (ver.2)

Artists:  A B C D E F G H I J K L M N O P Q R S T U V W X Y Z # 

The Road Im On Bass tabs (ver.2)

3 Doors Down
Rating:
0/5 (0 votes)

Hard to play? Try these video lessons and learn fast.
                (2)
/ = slide up
b = bend
Verse:

G----------------------
D----------------------
A------------------3-
E---12/1---4--/5-------

On the 5 and 3, I think my bass might be a little out of tune.  But if it sounds off to you partially bend it and it should be better, worked over here.

Chorus/Solo:

G------------------------------------------------------
D------------------------------------------------------
A----------------------------------------3-3-3-3-3-3-3-
E--0-0-0-0-0--3-3-3-3-3-3--5-5-5-5-5-5-5---------------
            
Hard to play? Try these video lessons and learn fast. | Correct




comments powered by Disqus
↑ Back to top | Tablatures and chords are parodies/interpretations of the original songs. You may use it for private study, scholarship, research or language learning purposes only