» » »

Citizen Soldier Tabs (ver.3)

Artists:  A B C D E F G H I J K L M N O P Q R S T U V W X Y Z # 

Citizen Soldier Tabs (ver.3)

3 Doors Down
Rating:
3/5 (3 votes)

Hard to play? Try these video lessons and learn fast.
                ----------------------------------------------------------------------------
                              Citizen/Soldier
                               3 Doors Down
----------------------------------------------------------------------------


tuning: half step down

intro
e|--------------------------------|----------------------------------------|
B|--------------------------------|----------------------------------------|
G|--------------------------------|----------------------------------------|
D|-4h6-6-6-6-6-6--4h6-6-6-6-6-6/9-|-4h6-6-6-6-6-6---4h6-6-6-6-6-6---2--1---|
A|--------------------------------|----------------------------------------|
E|--------------------------------|----------------------------------------|

e|--------------------------------|----------------------------------------|
B|--------------------------------|----------------------------------------|
G|--------------------------------|----------------------------------------|
D|-4h6-6-6-6-6-6--4h6-6-6-6-6-6/9-|-4h6-6-6-6-6-6---4h6-6-6-6-6-6---2--1---|
A|--------------------------------|----------------------------------------|
E|--------------------------------|----------------------------------------|


verse
e|--------------------------------|----------------------------------------|
B|--------------------------------|----------------------------------------|
G|--------------------------------|----------------------------------------|
D|-4h6-6-6-6-6-6--4h6-6-6-6-6-6/9-|-4h6-6-6-6-6-6---4h6-6-6-6-6-6---2--1---|
A|--------------------------------|----------------------------------------|
E|--------------------------------|----------------------------------------|

e|--------------------------------|----------------------------------------|
B|--------------------------------|----------------------------------------|
G|--------------------------------|----------------------------------------|
D|-4h6-6-6-6-6-6--4h6-6-6-6-6-6/9-|-4h6-6-6-6-6-6---4h6-6-6-6-6-6---2--1---|
A|--------------------------------|----------------------------------------|
E|--------------------------------|----------------------------------------|


bridge
e|-4----5----7----|-4----5----7--------------------------------------------|
B|-4----5----7----|-4----5----7--------------------------------------------|
G|-6----6----8----|-6----6----8--------------------------------------------|
D|-6----7----9----|-6----7----9--------------------------------------------|
A|-4----7----9----|-4----7----9--------------------------------------------|
E|-x----5----7----|-x----5----7--------------------------------------------|

                                                        ___________________
chorus                                                        repaeat 4x   |
e|-----------|-------------------------------------------------------------|
B|-----------|-------------------------------------------------------------|
G|-----------|-------------------------------------------------------------|
D|-6-6-2/6-6-|-7-7--7--9-9-------------------------------------------------|
A|-4-4-2/4-4-|-7-7--7--9-9-------------------------------------------------|
E|-----0/----|-5-5--5--7-7-------------------------------------------------|


verse 2
When there are people crying in the streets,
When they're starving for a meal to eat,
When they simply need a place to make their beds,
Right here underneath my wing,
You can rest your head

bridge
On that day when you need your brothers and sisters to care,
I'll be right here

chorus
Citizen soldiers holding the light for the ones that we guide from the dark of despair.
Standing on guard for the ones that we sheltered,
We'll always be ready because we will always be there...

There... there... there...

verse 3
Hope and pray that you'll never need me,
But rest assured I will not let you down.
I'll walk beside you but you may not see me,
The strongest among you may not wear a crown.

bridge
On that day when you need your brothers and sisters to care,
I'll be right here

out-chorus (just reapeat the chorus 8x instead of 4x)
On that day when you need your brothers and sisters to care,
I'll be right here!
On that day when you don't have the strength for the burden you bear,
I'll be right here!
Citizen soldiers holding the light for the ones that we guide from the dark of despair.
(Citizen soldiers)
Standing on guard for the ones that we sheltered,
We'll always be ready because we will always be there

| /  slide up
| \  slide down
| h  hammer-on
| p  pull-off
| ~  vibrato
| +  harmonic
| x  Mute note
============================================================================

End
            
Hard to play? Try these video lessons and learn fast. | Correct




comments powered by Disqus
↑ Back to top | Tablatures and chords are parodies/interpretations of the original songs. You may use it for private study, scholarship, research or language learning purposes only