» » »

3 Doors Down, Citizen Soldier Tabs (ver.1)

Artists:  A B C D E F G H I J K L M N O P Q R S T U V W X Y Z # 

Citizen Soldier Tabs (ver.1)

3 Doors Down Tabs
 Rating:
3.3/5 (12 votes)
Citizen Soldier lessons Tabs too difficult? Try these video lessons and learn fast
                ----------------------------------------------------------------------------
                     Citizen/Soldier - 3 Doors Down
----------------------------------------------------------------------------


Tuning: Dropped C

Ok, I know what your saying, 3DD don't use drop C! Normally I would agree with you, but 
along with the song while playing my tab and you'll be a believer! If you watch them 
they play this song live, it makes sense!

intro/verse:play this through out the verse until the pre-chorus
D|---------------------------------------------------------------|
A|---------------------------------------------------------------|
F|---------------------------------------------------------------|
C|---------------------------------------------------------------|
G|---10h12-10h12-b12-10h12-15-10h12-10h12-10h12-b12--8-7-7p8-----|
C|---0--0--0--0---0--0--0--0--0--0--0--0--0--0---0--8-7----------|

Pre-Chorus: Dm, B, Am.
D|-1-0h1-1--1-1--0-0-0-0-----------------------------------------|
A|-3-3-3-3--1-1--1-1-1-1-----------------------------------------|
F|-2-2-2-2--3-3--2-2-2-2-----------------------------------------|
C|-0-0-0-0--3-3--2-2-2-2-----------------------------------------|
G|-0-0-0-0--1-1--0-0-0-0-----------------------------------------|
C|-0-0-0-0-------------------------------------------------------|

Chorus:
D|---------------------------------------------------------------|
A|---------------------------------------------------------------|
F|---------2-2-5-5---------------5-------------------------------|
C|-0-0-3-0-2-2-5-5-0-0-3-0-8-7-4-5-3-5---------------------------| (x2)
G|-0-0-3-0-1-1-3-3-0-0-3-0-8-7-4-3-3-5---------------------------|
C|-0-0-3-0---------0-0-3-0-8-7-4---3-5---------------------------|

End Chorus on a Dm and let it ring

D|-1-|
A|-3-|
F|-2-|
C|-0-|
G|-0-|
C|-0-|

Repeat these parts

Verse
Pre-Chorus
Chorus

Now the third verse involves some extreme finger picking on the chords Dm, B, and Am.
I'm not sure what it is, when ever I figure it out, I'll update the tab again!

Lyrics:

Beyond the boundaries of your city's lights,
Stand the heroes waiting for your cries.
So many times you did not bring this on yourself,
When that moment finally comes,
I'll be there to help.

On that day
When you need your brothers and sisters to care,
I'll be right here.

Citizen soldiers holding the light
For the ones that we guide from the dark of despair.
Standing on guard for the ones that we sheltered,
We'll always be ready
Because we will always be there.

When there are people crying in the streets,
When they're starving for a meal to eat,
When they simply need a place to make their beds,
Right here underneath my wing,
You can rest your head.

On that day
When you need your brothers and sisters to care,
I'll be right here.

Citizen soldiers holding the light
For the ones that we guide from the dark of despair.
Standing on guard for the ones that we sheltered,
We'll always be ready
Because we will always be there.

Hope and pray that you'll never need me,
But rest assured I will not let you down.
I'll walk beside you but you may not see me,
The strongest among you may not wear a crown.

On that day
When you need your brothers and sisters to care,
I'll be right here!
On that day
When you don't have the strength for the burden you bear,
I'll be right here!
            
Submit corrections

comments powered by Disqus
↑ Back to top | 3 Doors Down Tabs for Citizen Soldier. Lyrics for acoustic guitar and electric guitar. Tablatures and chords are parodies/interpretations of the original songs. You may use it for private study, scholarship, research or language learning purposes only