>
 >
Changes

Changes Guitar Tabs

3 Doors Down - Changes chords, tabs, tablatures, lyrics

Guitar lessons | Add/correct | Request | Top 50 tabs Artists:  A B C D E F G H I J K L M N O P Q R S T U V W X Y Z 0-9

Changes Guitar Tabs – 3 Doors Down

CD, Sheet music, Poster

Do you like Changes? Share with your friends now
ChordsChords v2TabsTabs v2Tabs v3Tabs v4Ukulele
3 Doors Down
Away From the Sun


This is about 95% correct.  
There are some harmonics I can't pick up quite yet, 
but overall this should be everything.  

Drop D: DADGBe

x - Palm Mute

INTRO (0:00-0:38)

Guitar 1
    
e||---5-------------|----5-----------8----|--5---------------|-----------------||
B||o----6---8-5---5-|------6----8---------|----6---8-5-------|----------------o||
G||-------7-----5---|--------7------------|------7-----5-----|-----------------||
D||-----------------|---------------------|--------------8---|----3---------2--|| (x3)
A||o----------------|---------------------|------------------|--3-----3---2---o||
D||-0---------------|-0-------------------|0-----------------|3-----3---2------||

Guitar 2
    
e||---5-------------|--5-5-----------5-6--|5-(5)-------------|-----------------||
B||o--------8-5---5-|------6---8-5-8-----8|--------8-5---5---|----------------o||
G||-------------5---|--------7------------|------------5-----|-----------------||
D||-----------------|---------------------|------------------|----3---------2--|| (x3)
A||o----------------|---------------------|------------------|--3-----3---2---o||
D||-0---------------|0--------------------|------------------|3-----3---2------||

Pre-Chorus (0:39-0:51)

Guitar 1 & 2

e||------1--0----||            |----------|
B||o-----3--3---o||            |----------|
G||------2--2----||(4)   then  |----------|
D||---0----------||            |--0-0-0-0-|
A||o--0---------o||            |--0-0-0-0-|
D||---0----------||            |--0-0-0-0-|

Chorus (0:51-1:14)
      
e||---------------|------------|-----------|--------------||
B||o--------------|------------|-----------|-------------o||
G||---------------|------------|-----------|--------------|| (x4)
D||---0-10--12--7-|(7)-8---5---|-7---8---10|(10)-12--12---||
A||o--0-10--12--7-|(7)-8---5---|-7---8---10|(10)-12--12--o||
D||---0-10--12--7-|(7)-8---5---|-7---8---10|(10)-12--12---||

Post-Chorus (1:14-1:26)

Guitar 1

e||----1-1-1---0-0--|---3-3-3---2-2---||
B||o---3-3-3---2-2--|---3-3-3---3-3--o||
G||----2-2-2---1-1--|---2-2-2---2-2---||
D||--0--------------|-0---------------||(x2)
A||o-0--------------|-0--------------o||
D||--0--------------|-0---------------||

Guitar 2
      
e||-----------------|-----------------||
B||o----------------|----------------o||
G||-----------------|-----------------||
D||--0~-------------|-----------------||(x2)
A||o-0~-------------|----------------o||
D||--0~-------------|-----------------||
     Hold for four measures

Verse 2 (1:26-1:50)

Guitar 1
    
e||---5-------------|----5-----------8----|--5---------------|-----------------||
B||o----6---8-5---5-|------6----8---------|----6---8-5-------|----------------o||
G||-------7-----5---|--------7------------|------7-----5-----|-----------------||
D||-----------------|---------------------|--------------8---|----3---------2--|| (x2)
A||o----------------|---------------------|------------------|--3-----3---2---o||
D||-0---------------|-0-------------------|0-----------------|3-----3---2------||

Guitar 2
    
e||---5-------------|--5-5-----------5-6--|5-(5)-------------|-----------------||
B||o--------8-5---5-|------6---8-5-8-----8|--------8-5---5---|----------------o||
G||-------------5---|--------7------------|------------5-----|-----------------||
D||-----------------|---------------------|------------------|----3---------2--|| (x2)
A||o----------------|---------------------|------------------|--3-----3---2---o||
D||-0---------------|0--------------------|------------------|3-----3---2------||

Pre-Chorus 2 (1:50-2:01)

Guitar 1 & 2

e||------1--0----||            |----------|
B||o-----3--3---o||            |----------|
G||------2--2----||(4)   then  |----------|
D||---0----------||            |--0-0-0-0-|
A||o--0---------o||            |--0-0-0-0-|
D||---0----------||            |--0-0-0-0-|

Chorus 2 (2:01-2:24)

e||---------------|------------|-----------|--------------||
B||o--------------|------------|-----------|-------------o||
G||---------------|------------|-----------|--------------|| (x4)
D||---0-10--12--7-|(7)-8---5---|-7---8---10|(10)-12--12---||
A||o--0-10--12--7-|(7)-8---5---|-7---8---10|(10)-12--12--o||
D||---0-10--12--7-|(7)-8---5---|-7---8---10|(10)-12--12---||

Post-Chorus (2:24-2:38)

e|---1-1-1---0-0--|---3-3-3---2-2--|---2-2-2---0-0-0-||-------------------||
B|---3-3-3---3-3--|---3-3-3---3-3--|---3-3-3---3-3-3-||o-----------------o||
G|---2-2-2---2-2--|---2-2-2---2-2--|---2-2-2---2-2-2-||----7----9---------||
D|-0--------------|-0--------------|-0---------------||--9---10---12--12--||
A|-0--------------|-0--------------|-0---------------||o-----------------o||
D|-0--------------|-0--------------|-0---------------||-------------------||

Guitar 2
      
e|----------------|
B|----------------|
G|----------------|
D|-0~-------------|
A|-0~-------------|
D|-0~-------------|
     Hold for five measures

Bridge (2:39-2:50)

Guitar 1 & 2
                                                      x x x x x x x x
e|----------------|----------------|----------------|----------------|
B|----------------|----------------|----------------|----------------|
G|----------------|----------------|----------------|----------------|
D|----3-----------|-----0----------|----3-----------|-5-5-5-5-5-5-5-5|
A|----3-----------|-----0----------|----3-----------|-5-5-5-5-5-5-5-5|
D|----3-----------|-----0----------|----3-----------|-5-5-5-5-5-5-5-5|

Chorus 3 (2:50-3:35)

e||---------------|------------|-----------|--------------||
B||o--------------|------------|-----------|-------------o||
G||---------------|------------|-----------|--------------|| (x8)
D||---0-10--12--7-|(7)-8---5---|-7---8---10|(10)-12--12---||
A||o--0-10--12--7-|(7)-8---5---|-7---8---10|(10)-12--12--o||
D||---0-10--12--7-|(7)-8---5---|-7---8---10|(10)-12--12---||

Outro (3:35-3:56)

Guitar 1 & 2

e||----1-1-1---0-0--|---3-3-3---2-2---||
B||o---3-3-3---2-2--|---3-3-3---3-3--o||
G||----2-2-2---1-1--|---2-2-2---2-2---||
D||--0--------------|-0---------------||(x2)
A||o-0--------------|-0--------------o||
D||--0--------------|-0---------------||





Comments


Popular 3 Doors Down tabs & chords
Kryptonite 2 Bass Tabs
Down Poison 1 Chords
Let Me Go 1 Chords
By My Side 4 Tabs
Down Poison 1 Tabs
Here Without You 3 Tabs
Here Without You Intro Tabs
Spell Correctly Tabs
Story Of A Girl Tabs
Round And Round Ukulele


Song lyrics



↑ Back to top | Tablatures and chords are parodies/interpretations of the original songs. You may use it for private study, scholarship, research or language learning purposes only
© 2014 AZChords.com Contact us | Privacy policy | DMCA | Add/correct tabs | Request tabs | Top 50 tabs