» » »

3 Doors Down, Changes Tabs (ver.3)

Artists:  A B C D E F G H I J K L M N O P Q R S T U V W X Y Z # 

Changes Tabs (ver.3)

3 Doors Down Tabs
 Rating:
3.4/5 (5 votes)
Changes lessons Tabs too difficult? Try these video lessons and learn fast
                3 Doors Down: Changes

Intro:
E---------------------------------------------------|
B----10------------------10-----------8-10-11-8-10--|
G-------10-7-12-9-----------10-7-12-9---------------|
D--0--------------10-8-7----------------------------|
A---------------------------------------------------|
E---------------------------------------------------|

E-------------------------------------|
B--10---------------------------------|
G-----10-7-12-9-----------------------|
D---------------10-8-----3-------2----|
A----------------------3---3---2---2--|
E--------------------1-------0--------|

Verse (same as intro):
E---------------------------------------------------|
B----10------------------10-----------8-10-11-8-10--|
G-------10-7-12-9-----------10-7-12-9---------------|
D--0--------------10-8-7----------------------------|
A---------------------------------------------------|
E---------------------------------------------------|

E-------------------------------------|
B--10---------------------------------|
G-----10-7-12-9-----------------------|
D---------------10-8-----3-------2----|
A----------------------3---3---2---2--|
E--------------------1-------0--------|

E---------------------------------------------------|
B----10------------------10-----------8-10-11-8-10--|
G-------10-7-12-9-----------10-7-12-9---------------|
D--0--------------10-8-7----------------------------|
A---------------------------------------------------|
E---------------------------------------------------|

E-------------------------------------|
B--10---------------------------------|
G-----10-7-12-9-----------------------|
D---------------10-8-----3-------2----|
A----------------------3---3---2---2--|
E--------------------1-------0--------|

Pre-chorus:
E-------------------------------------------------|
B-----6--6-5------6--6-5------6--6-5------6--6-5--|
G--7--7--7-7---7--7--7-7---7--7--7-7---7--7--7-7--|
D--7-----------7-----------7-----------7----------|
A--5-----------5-----------5-----------5----------|
E-------------------------------------------------|

Chorus:
E----------------------------------------------------------------|
B----------------------------------------------------------------|
G--5--7-----------------5--7-7-7--5--7-----------------5--7-7-7--|
D--5--7--7--8--5--7--8--5--7-7-7--5--7--7--8--5--7--8--5--7-7-7--|
A--3--5--7--8--5--7--8--3--5-5-5--3--5--7--8--5--7--8--3--5-5-5--|
E--------5--6--3--5--6------------------5--6--3--5--6------------|

E----------------------------------------------------------------|
B----------------------------------------------------------------|
G--5--7-----------------5--7-7-7--5--7-----------------5--7-7-7--|
D--5--7--7--8--5--7--8--5--7-7-7--5--7--7--8--5--7--8--5--7-7-7--|
A--3--5--7--8--5--7--8--3--5-5-5--3--5--7--8--5--7--8--3--5-5-5--|
E--------5--6--3--5--6------------------5--6--3--5--6------------|

After Chorus:
E----------------------------------------------------------|
B--11-1111-1010-10--10-1010-77-7--7-77-55-5--10-1010-77-7--|
G--10-1010-9-9--9---9--9-9--77-7--7-77-55-5--9--9-9--77-7--|
D----------------------------------------------------------|
A----------------------------------------------------------|
E----------------------------------------------------------|

Repeat Verse:
Repeat Pre-chorus:
Repeat Chorus:

After Chorus (2nd time):
E-----------------------------------------------------------------------|
B--11-1111-1010-10--10-1010-77-7--7-77-55-5-----3--3h5-6~----3--3h5-6~--|
G--10-1010-9-9--9---9--9-9--77-7--7-77-55-5--3h5--5-------3h5--5--------|
D-----------------------------------------------------------------------|
A-----------------------------------------------------------------------|
E-----------------------------------------------------------------------|

E---------------------------------------------|
B---------------------------------------------|
G--5-------7-------5--------------------------|
D--5-------7-------5--------------------------|
A--3-------5-------3--------3333333333333333--|
E---------------------------------------------|

Repeat Chorus 2x:

End with this part again:
E----------------------------------------------------------|
B--11-1111-1010-10--10-1010-77-7--7-77-55-5--10-1010-77-7--|
G--10-1010-9-9--9---9--9-9--77-7--7-77-55-5--9--9-9--77-7--|
D----------------------------------------------------------|
A----------------------------------------------------------|
E----------------------------------------------------------|
            
Submit corrections

comments powered by Disqus
↑ Back to top | 3 Doors Down Tabs for Changes. Lyrics for acoustic guitar and electric guitar. Tablatures and chords are parodies/interpretations of the original songs. You may use it for private study, scholarship, research or language learning purposes only