>
 >
By My Side 2

By My Side 2 Guitar Tabs

3 Doors Down - By My Side 2 chords, tabs, tablatures, lyrics

Guitar lessons | Add/correct | Request | Top 50 tabs Artists:  A B C D E F G H I J K L M N O P Q R S T U V W X Y Z 0-9

By My Side 2 Guitar Tabs – 3 Doors Down

CD, Sheet music, Poster

Do you like By My Side 2? Share with your friends now
Bass TabsBass Tabs v2ChordsTabsTabs v2Tabs v3Tabs v4Tabs v5Tabs v6Tabs v7Ukulele
3 Doors Down - By My Side
-------------------------

Tuning: Standard

In my oppinion this is by far the
best song by 3 Doors Down. And its
fairly easy. Just a few parts can
get a little tricky but its sill
easy to get down.
Enjoy!

All you do for the intro is this

e|-----------------------------------------------|
B|-----------------------------------------------|
G|-----------------------------------------------|
D|-------------3-3-3-0-3-0-------------3-3-3-3-5-|
A|-5-5-6-5h6h5-1-1---------5-5-6-5h6h5-1-1-1-----|
E|-3-3---------------------3-3-------------------|

e|-----------------------------------------------|
B|-----------------------------------------------|
G|-----------------------------------------------|
D|-------------3-3-3-0-3-0-------------3-3-3-3-3-|
A|-5-5-6-5h6h5-1-1---------5-5-6-5h6h5-1-1-1-1-1-|
E|-3-3---------------------3-3-------------------|
Then do that for the verses but muted
Then do the intro for the chorus
Then after the chorus it goes

e|--------------------------------|
B|--------------------------------|
G|--------------------------------|
D|-----------3--------------------|
A|-5-5---3-5---6-5-3---3-5-5-5----|
E|-3-3-6-------------6-----3-3----|

e|--------------------------------|
B|--------------------------------|
G|--------------------------------|
D|-----------3--------------------|
A|-5-5---3-5---6-5-3---3--5-5-----|
E|-3-3-6-------------6----3-3-----|

e|------------------------------|
B|------------------------------|
G|------------------------------|
D|---------3--------------------|
A|-5---3-5---6-5-3---3-5-5-5----|
E|-3-6-------------6-----3-3----|

e|--------------------------------|
B|--------------------------------|
G|--------------------------------|
D|-----------3--------------------|
A|-5-5---3-5---6-5-3---3--5-5-----|
E|-3-3-6-------------6----3-3-----|

Then do the intro muted again.
Then play it but not muted
Then heres the solo

Solo:
e|--------------------------------------|
B|--------------------------------------|
G|--------------------------------------|
D|--10b(12)-8-------8-10-8-10-8-10b(12)-|
A|------------10-10---------------------|
E|--------------------------------------|

e|----------------------------------------------|
B|----------------------------------------------|
G|----------------------------------------------|
D|-10b(12)-8-------------------------8----------|
A|-----------10-8----8-10-10-----8-----10-8h10--|
E|----------------10----------10---10-----------|

e|-------------------------------------------------|
B|-------------------------------------------------|
G|-7-10-12-12-12-12-12-12---7-10-12-12-12-12-12-12-|
D|-------------------------------------------------|
A|-------------------------------------------------|
E|-------------------------------------------------|

e|--------------------------------------------------|
B|--------------------------------------------------|
G|-12-12-12-12h10----12h10----12h10----12h10--------|
D|----------------12-------12-------12-------12-----|
A|--------------------------------------------------|
E|--------------------------------------------------|

e|---------------------------------------------------|
B|---------------------------------------------------|
G|-12h10-----12h10----12h10----12h10----12h10--------|
D|-------12--------12-------12-------12-------12-10h8|
A|---------------------------------------------------|
E|---------------------------------------------------|

e|------------|
B|------------|
G|------------|
D|------------|
A|-10-8-5-3-1-|
E|------------|
Then back to
e|--------------------------------|
B|--------------------------------|
G|--------------------------------|
D|-----------3--------------------|
A|-5-5---3-5---6-5-3---3-5-5-5----|
E|-3-3-6-------------6-----3-3----|

e|--------------------------------|
B|--------------------------------|
G|--------------------------------|
D|-----------3--------------------|
A|-5-5---3-5---6-5-3---3--5-5-----|
E|-3-3-6-------------6----3-3-----|

e|------------------------------|
B|------------------------------|
G|------------------------------|
D|---------3--------------------|
A|-5---3-5---6-5-3---3-5-5-5----|
E|-3-6-------------6-----3-3----|

e|--------------------------------|
B|--------------------------------|
G|--------------------------------|
D|-----------3--------------------|
A|-5-5---3-5---6-5-3---3--5-5-----|
E|-3-3-6-------------6----3-3-----|

e|----------------------------------------------|
B|----------------------------------------------|
G|----------------------------------------------|
D|-------------3-3-3-0-3-0-------------3-3-3-5--|
A|-5-5-6-5h6h5-1-1---------5-5-6-5h6h5-1-1------|
E|-3-3---------------------3-3------------------|
And the lead for this last part is

e|----------------------------------|
B|-8-10b(11)-8--20h18-20h18-20h18---|
G|----------------------------------|
D|----------------------------------|
A|----------------------------------|
E|----------------------------------|
Do the 20 hammer 18 a bunch of times then go to

e|------------------------------------|
B|-20-18------------------------------|
G|-------19-17-15----15-17b(19)-15----|
D|----------------17---------------17-|
A|------------------------------------|
E|------------------------------------|
Then back into

e|---------------------------------------------------------|
B|---------------------------------------------------------|
G|---------------------------------------------------------|
D|-------------3-3-3-0-3-0-------------3-3-3-3-5-----------|
A|-5-5-6-5h6h5-1-1---------5-5-6-5h6h5-1-1-1---------------|
E|-3-3---------------------3-3-----------------------------|

e|---------------------------------------------------------|
B|---------------------------------------------------------|
G|---------------------------------------------------------|
D|-------------3-3-3-0-3-0-------------3-3-3-3-3-----------|
A|-5-5-6-5h6h5-1-1---------5-5-6-5h6h5-1-1-1-1-1-----------|
E|-3-3---------------------3-3-----------------------------|
| b bend
| /  slide up
| \  slide down
| h  hammer-on
| p  pull-off
| ~  vibrato
| +  harmonic
| x  Mute note
====================================================================





Comments


Popular 3 Doors Down tabs & chords
The Road I'm On 1 Bass Tabs
Be Like That 1 Chords
Its Not Me Chords
Its The Only One Youve Got 1 Chords
Let Me Go 2 Chords
Story Of A Girl Chords
Here Without You 4 Tabs
When I'm Gone 13 Tabs
When I'm Gone 14 Tabs
When I´M Gone 1 Tabs


Song lyrics



↑ Back to top | Tablatures and chords are parodies/interpretations of the original songs. You may use it for private study, scholarship, research or language learning purposes only
© 2014 AZChords.com Contact us | Privacy policy | DMCA | Add/correct tabs | Request tabs | Top 50 tabs