» » »

3 Doors Down, By My Side Tabs (ver.2)

Artists:  A B C D E F G H I J K L M N O P Q R S T U V W X Y Z # 

By My Side Tabs (ver.2)

3 Doors Down Tabs
 Rating:
4/5 (7 votes)
By My Side lessons Tabs too difficult? Try these video lessons and learn fast
                Standard Tuning

h = hammer on
p = pull off
. = palm mute

Intro guitar 1
------------------------------------------------------
------------------------------------------------------
----------------3-3-------------------------3-3----0--
--5-5-----------3-3-----------5-5-----------3-3--3----
--5-5-----------1-1-----------5-5-----------1-1-------
--3-3-------------------------3-3---------------------

Intro guitar 2
------------------------------------------------------
------------------------------------------------------
----------------3-3-------------------------3-3----0--
--5-5-1-0-0h1p0-3-3-3-0-0h3p0-5-5-1-0-0h1p0-3-3--3----
--5-5-----------1-1-----------5-5-----------1-1-------
--3-3-------------------------3-3---------------------
guitar 1
---------------------------------------------------------
---------------------------------------------------------
----------------3-3-------------------------3-3-3-3-3-3--
--5-5-----------3-3-----------5-5-----------3-3-3-3-3-3--
--5-5-----------1-1-----------5-5-----------1-1-1-1-1-1--
--3-3-------------------------3-3------------------------
guitar 2
---------------------------------------------------------
---------------------------------------------------------
----------------3-3-------------------------3-3-3-3-3-3--
--5-5-1-0-0h1p0-3-3-3-0-0h3p0-5-5-1-0-0h1p0-3-3-3-3-3-3--
--5-5-----------1-1-----------5-5-----------1-1-1-1-1-1--
--3-3-------------------------3-3------------------------

Main Riff                            4x 
--------------------------------------
--------------------------------------
---------8-8-8-8---------10-10-10-10--
--5-5-5--8-8-8-8--8-8-8--10-10-10-10--
--5-5-5--6-6-6-6--8-8-8---8--8--8--8--
--3-3-3-----------6-6-6---------------

Verse(palm mute)                     4x 
--------------------------------------
--------------------------------------
---------8-8-8-8---------10-10-10-10--
--5-5-5--8-8-8-8--8-8-8--10-10-10-10--
--5-5-5--6-6-6-6--8-8-8---8--8--8--8--
--3-3-3-----------6-6-6---------------
  
Chorus
------------------------------------------------------
------------------------------------------------------
----------------3-3-------------------------3-3----0--
--5-5-1-0-0h1p0-3-3-3-0-0h3p0-5-5-1-0-0h1p0-3-3--3----
--5-5-----------1-1-----------5-5-----------1-1-------
--3-3-------------------------3-3---------------------

----------------------------------------------------
----------------------------------------------------
----------------3-3-------------------------3-3-----
--5-5-1-0-0h1p0-3-3-3-0-0h3p0-5-5-1-0-0h1p0-3-3--3--
--5-5-----------1-1-----------5-5-----------1-1-----
--3-3-------------------------3-3-------------------

After Chorus                                         2x
------------------------------------------------------
------------------------------------------------------
------------------------------------------------------
--5-5--------3--------------5-5--------3--------------
--5-5----3-5---6-5-3---3-5--5-5----3-5---6-5-3---3----
--3-3--6-------------6------3-3--6-------------6---3--

Solo Backing 1st Half of Solo (palm mute) 4x
----------------------------------
----------------------------------
---------3-3-3-3---------5-5-5-5--
--5-5-5--3-3-3-3--3-3-3--5-5-5-5--
--5-5-5--1-1-1-1--3-3-3--3-3-3-3--
--3-3-3-----------1-1-1-----------
  

Solo Backing (2nd Half of Solo) 4x
----------------------------------
----------------------------------
---------3-3-3-3---------5-5-5-5--
--5-5-5--3-3-3-3--3-3-3--5-5-5-5--
--5-5-5--1-1-1-1--3-3-3--3-3-3-3--
--3-3-3-----------1-1-1-----------


Last Chorus                          4x
--------------------------------------
--------------------------------------
---------8-8-8-8---------10-10-10-10--
--5-5-5--8-8-8-8--8-8-8--10-10-10-10--
--5-5-5--6-6-6-6--8-8-8---8--8--8--8--
--3-3-3-----------6-6-6---------------

End with Intro and Main Riff
            
Submit corrections

comments powered by Disqus
↑ Back to top | 3 Doors Down Tabs for By My Side. Lyrics for acoustic guitar and electric guitar. Tablatures and chords are parodies/interpretations of the original songs. You may use it for private study, scholarship, research or language learning purposes only