» » »

3 Doors Down, Believer Tabs (ver.1)

Artists:  A B C D E F G H I J K L M N O P Q R S T U V W X Y Z # 

Believer Tabs (ver.1)

3 Doors Down Tabs
 Rating:
4.6/5 (9 votes)
Believer lessons Tabs too difficult? Try these video lessons and learn fast
                3 Doors Down - Believer
Album - Time Of My Life

Tuning - Standard Tuning EADGBe

This is what I figured out from listening to the album, it's my first official tab here! 
I just can't solo, so that isn't here.. Enjoy!



INTRO
e------------------------------------------------------------|
B------------------------------------------------------------|
G------------------------------------------------------------|
D------------------------------------------------------------|
A-------7-5-----8~7-5---7-5---5---5-7-8-7-5-----5-----5------|
E-5-7-8-----8-7-------8-----8---8-----------8-7---8-7---8-7--|

VERSE
e------------------------------------------------------------|
B----------6~6666666-----------------------------------------|
G-22222222-5~5555555-5555555\5~555555------------------------|
D-22222222-3~3333333-5555555\5~555555------------------------|
A-00000000-----------3333333\2~222223------------------------|
E------------------------------------------------------------|
  MMMMMMMM    MMMMMM MMMMMMM    MMMM

PRE-CHORUS
e------------------------------------------------------------|
B-------------------(1st-time)-------(second-time)-----------|
G-------------------2-22222222222222-9-9999999\3-------------|
D-3-3-333/5-5555555-2-22222222222222-9-9999999\3->slide down-|
A-3-3-333/5-5555555-0-00000000000000-7-7777777\1-------------|
E-1-1-111/3-3333333------------------------------------------|
 |___2x____________|

CHORUS
e------------------------------------------------------------|
B-------66666666---------------------------------------------|
G-22222-55555555-55555-77777777------------------------------|
D-22222-33333333-55555-77777777------------------------------|
A-00000----------33333-55555555------------------------------|
E------------------------------------------------------------|

BREAK
e------------------------------------------------------------|
B------------------------------------------------------------|
G------------------------------------------------------------|
D------------------------------------------------------------|
A-2-2-0------4-4-4-------------------------------------------|
E-0-----3-2~-2-2-2-2-3-2-------------------------------------|
               M M


INTRO		2X
VERSE		2x
PRE-CHORUS	2X
CHORUS		4X
INTRO		2X
VERSE		2X
PRE-CHORUS	2X
CHORUS		4X
BREAK		4X

SOLO (during solo play CHORUS 2x muted, 2x NOT muted)

CHORUS		4X
INTRO		2X
            
Submit corrections

comments powered by Disqus
↑ Back to top | 3 Doors Down Tabs for Believer. Lyrics for acoustic guitar and electric guitar. Tablatures and chords are parodies/interpretations of the original songs. You may use it for private study, scholarship, research or language learning purposes only