» » »

3 Doors Down, Believer Tabs (ver.2)

Artists:  A B C D E F G H I J K L M N O P Q R S T U V W X Y Z # 

Believer Tabs (ver.2)

3 Doors Down Tabs
Rating:
5/5 (2 votes)
Believer lessons Tabs too difficult? Try these video lessons and learn fast
                Artist - 3 Doors Down 
Track - Believer
Album - Time of my Life


Most tabs have the intro played on the low E which sounds exactly the same, but 
Matt Roberts played it this way live in Birmingham (12/03/12) so that how I’ve tabbed it. 

INTRO & FILL

e--------------------------------------------------------------------------|
B--------------------------------------------------------------------------|
G--------------------------------------------------------------------------|
D-------2-0-----3~2-0---2-0----0---0-2-3-2-0-----0-----0-------------------|
A-0-2-3-----3-2-------3------3---3-----------3-2---3-2---3-2---------------|
E--------------------------------------------------------------------------|

VERSE

e--------------------------------------------------------------------------|
B--------------------------------------------------------------------------|
G-2-2-2-2-2--10-10-10-10-10--5-5-5-5-5--5-5-5-5-5-5------------------------|
D-2-2-2-2-2--10-10-10-10-10--5-5-5-5-5--5-5-5-5-5-5------------------------|
A-0-0-0-0-0--8--8--8--8--8---3-3-3-3-3--2-2-2-2-2-3------------------------|
E--------------------------------------------------------------------------|

PRE CHORUS

e--------------------------------------------------------------------------|
B--------------------------------------------------------------------------|
G--------------------------------------------------------------------------|
D-3-3-3--5-5-5--7-7-7-7-7-7-7-7--------------------------------------------|
A-3-3-3--5-5-5--7-7-7-7-7-7-7-7--------------------------------------------|
E-1-1-1--3-3-3--5-5-5-5-5-5-5-5--------------------------------------------|

e--------------------------------------------------------------------------|
B--------------------------------------------------------------------------|
G---------------9-9-9-9-9-9-9-9/-------------------------------------------|
D-3-3-3--5-5-5--7-7-7-7-7-7-7-7/-------------------------------------------|
A-3-3-3--5-5-5--7-7-7-7-7-7-7-7/-------------------------------------------|
E-1-1-1--3-3-3-------------------------------------------------------------|

CHORUS

e--------------------------------------------------------------------------|
B--------------------------------------------------------------------------|
G-2-2-2-2-2--10-10-10-10-10--5-5-5-5-5--7-7-7-7-7-7------------------------|
D-2-2-2-2-2--10-10-10-10-10--5-5-5-5-5--7-7-7-7-7-7------------------------|
A-0-0-0-0-0--8--8--8--8--8---3-3-3-3-3--5-5-5-5-5-5------------------------|
E--------------------------------------------------------------------------|

INTERLUDE 

e--------------------------------------------------------------------------|
B--------------------------------------------------------------------------|
G--------------------------------------------------------------------------|
D-2-2----------------------------------------------------------------------|
A-2-2-2-0-----4-4----------------------------------------------------------|
E-0-0----3-2--2-2-2-3-2----------------------------------------------------|

SOLO 1 - CHRIS HENDERSON

e-------------10--10--10--15-13-12----12-13-12-----------------------------|
B-10--10--10--13b-13b-13b----------15----------15-13----------13-----------|
G-12b-12b-12b----------------------------------------14-12-14----14--------|
D--------------------------------------------------------------------------|
A--------------------------------------------------------------------------|
E--------------------------------------------------------------------------|

e-20p17----17-22----17-20p17----17-22----17-20p17----17--------------------|
B-------20-------20----------20-------20----------20----20p17--------------|
G-------------------------------------------------------------19-----------|
D--------------------------------------------------------------------------|
A--------------------------------------------------------------------------|
E--------------------------------------------------------------------------|

e-17-20-19-17--------------------------------------------------------------|
B-------------20-18-17-----------------------------------------------------|
G----------------------19-17-16-17-----------------------------------------|
D--------------------------------------------------------------------------|
A--------------------------------------------------------------------------|
E--------------------------------------------------------------------------|

SOLO 2 - MATT ROBERTS (With Wah Pedal)

e-8-7-5--------------------------------------------------------------------|
B-------8-5-8-7-5----------------------------------------------------------|
G-----------------7-5-7-7b--5-7b--7p5---5h7--------------------------------|
D-------------------------------------7-----5h7----------------------------|
A--------------------------------------------------------------------------|
E--------------------------------------------------------------------------|

e-8-7-5-7-5----------------------------------------------------------------|
B-----------8-7h8p7-5-7-5---5----------------------------------------------|
G-------------------------7---7-5-7-5---5-------------------------------7--|
D-------------------------------------7---7-5-7-5---5-7-7-7-5---5-----5-7--|
A-------------------------------------------------7-----------7---7-5------|
E--------------------------------------------------------------------------|
            

comments powered by Disqus
↑ Back to top | 3 Doors Down Tabs for Believer. Lyrics for acoustic guitar and electric guitar. Tablatures and chords are parodies/interpretations of the original songs. You may use it for private study, scholarship, research or language learning purposes only